Know Music, Know Life

tsunvun86's Guitar Chords & Tabs

Protected: Taeyeon – Set me free (theMUSIC Acoustic Version) [Chords & Tabs]

leave a comment »


This content is password protected. To view it please enter your password below:

Written by tsunvun86

May 28, 2014 at 11:32 pm

Utada Hikaru – DEEP RIVER (Guitar Tabs)

leave a comment »


After finding out about Hikki’s marriage(1, 2) I decided today is to be Utada Hikaru appreciation day to finally once and for all give up on marrying Hikki myself hahaha. Switched my music player to her playlist and stopped at DEEP RIVER. From there I just kept looping it. I dug out my old handwritten tabs from more than 5 years ago and grabbed my guitar. Below is a typed up and amended version. Hikki I wish you all the happiness in the world.

Utada Hikaru - DEEP RIVER

Bmadd11 - x24430    
Gadd9 - 3x020x 
Asus2 - x02200         
Asus2/F# - 202200
Emadd9 - 024000
Dmaj7/F# - 24023x
F#7sus4 - 242422
Gmaj9 - 3x0202
Dsus2 - x0230
Asus2/C# - x42200

#Capo at first fret

Intro:
 Bmadd11        Gadd9     Asus2          Asus2/F#  Emadd9         Dmaj7/F# 
-------0------------------------0--------------0--------------------------
----------3-----------0---------0--------------0---------0--------------3-
-----4------4-------2---------2----2---------2-----------0--------------2-
---4--------------0---------2--------2-----2-----------4----4---------0---
-2------------------------0--------------------------2--------2-----4-----
----------------3------------------------2---------0--------------2-------

 Gadd9            F#7sus4
---------------------------2-
-------0------0---------2----
-----2------2-----4---4------
---0------0-------2-2--------
------------------4----------
-3----------------2----------

Verse 1:
 Gmaj9                   Asus2                     Emadd9      Dmaj7/F#
-------2-----------2-----------0-----------0---------------------------
-------0-----------0-----------0-----------0-------------0-----------0-
-----2-----------2-----------2-----------2---------------0-----------0-
---0-------0---0-------0---2-------2---2---------------4-----------4---
-------------------------0-----------0---------------2-------2---2-----
-3-----------3---------------------------------3-2-0-----------0-------

   Dsus2
---------0-------------0------
-------3----3--------3----3---
-----2--------2----2--------2-
---0-------------0------------
-2----------------------------
------------------------------

 Gmaj9                   Asus2                     Emadd9
-------2-----------2-----------0-----------0---------------------------
-------0-----------0-----------0-----------0-------------0-----------0-
-----2-----------2-----------2-----------2---------------0-----------0-
---0-------0---0-----------2-------2---2---------------4-----------4---
-------------------------0-----------0---------------2-------2---2-----
-3-----------3---------3-----------------------3-2-0-----------0-------

 Dsus2          Asus2/C#
-------0--------------0-
-----3----3-----------0-
---2--------2-------2---
-0----------------2-----
----------------4-------
------------------------

Chorus:
 Bmadd11        Gadd9     Asus2          Asus2/F#  Emadd9          Dmaj7/F#
-------0------------------------0--------------0---------------------------
----------3-----------0---------0--0-----------0-------------------------3-
-----4------4---2---2---------2------2-------2-----------0-----0---------2-
---4------------0-0---------2----------2---2-----------4-----4---------0---
-2------------------------0--------------------------2-----2---------4-----
----------------3------------------------2---------0---------------2-------

 Gadd9           F#7sus4
--------------------------2--
-------0-----0---------2-----
-----2-----2---------4-------
---0-----0------------------- (x2)
-------------------4---------
-3---------------2-----------

Instrumental:
 Bmadd11        Gadd9          Asus2          Asus2/F#  Emadd9         Dmaj7/F# 
-------------------------------------------------------------------------------
-----3------3--------0----0----------0----0---------0------------------------3-
-------4------------2---2----------2--------2-----2------------0-----0-------2-
---4------4---4---0---------0----2------2-------2------------4-----4-------0---
-2-----------------------------0---------------------------2-------------4-----
----------------3-----------------------------2---------0--------------2-------

   Gadd9          F#7sus4
-----------------------
---------0------0------
-------2------2---4--4-
-----0------0-----2--2-
------------------4--4-
-2-3--------------2--2-

Verse 3:
 Gmaj9                  Asus2                       Emadd9
-------2-----------2----------0-------------0---------------------------
-------0-----------0----------0-------------0-------------0-----------0-
-----2-----------2----------2-------------2---------------0-----------0-
---0-------0---0----------2-------0h2---2---------------4-----------4---
------------------------0-------------0---------------2-------2---2-----
-3-----------3----------------------------------3-2-0-----------0-------

   Dsus2        Asus2/C#    
-------0--------------0------
-----3----3-----------0------
---2--------2-------2----2---
-0----------------2--------2-
----------------4------------
-----------------------------

repeat Chorus (x2)

Outro:
 Bmadd11        Gadd9          Asus2          Asus2/F#  Emadd9           Dmaj7/F# 
-------------------------------------0-------------0----------------------------
-----3------3--------0----0----------0-------------0----------0---------------3-
-------4------------2---2----------2----2--------2------------0---------------2-
---4------4---4---0---------0----2--------2----2------------4-----4---------0---
-2-----------------------------0--------------------------2---------2-----4-----
----------------3----------------------------2---------0----------------2-------

 Gadd9          F#7sus4
------------------
-------0----0-----
-----2----------4-
---0------0-----2-
----------------4-
-3--------------2-

repeat Outro until fade....


Transcribed by,
tsunvun86

Written by tsunvun86

February 4, 2014 at 10:54 pm

Girls Dead Monster – My Song [Chords]

leave a comment »


 

Girls Dead Monster – My Song

Asus4 – x02230
Asus2 – x02200
Fmaj7 – x33210
G6add4 – 320010
G6 – 320000
Dsus2 – xx0230
Dsus2/F# – 2×0230
Fsus4 – 133311
EmMaj7 – 022030
Emadd2 – 022002
Fmaj13 – 133200
Gadd4 – 320013
Bsus4 – x24400
Cmaj7 – x35500
D6sus2 – x57700

Intro:
Am Asus4 Asus2 Am Asus2
Am Asus4 Em

Verse:
Am Em Am Em
Am G Fmaj7 G6add4 G6
Fmaj7 G6 Fmaj7 G6
Fmaj7 Em Am
G

repeat Verse

Pre-Chorus:
C Dsus2
C Em F G
Am Dsus2
C Em Am Eb

Chorus:
G F Em Dsus2
C Dsus2/F#
G Fsus4 F
G F Em Dsus2
C Dsus2/F#

EmMaj7 Emadd2 Fmaj13 (x2)
G6

Instrumental:
Asus2 F G
A (Asus4 A) F G (Gadd4 G)
A (A Asus2 A Asus4 A Asus2 A) F G (Gadd4 G)
A (Asus4 A) F G (Gadd4 G)
Fmaj13 G6

repeat Verse

repeat Pre-Chorus

repeat Chorus

EmMaj7 Emadd2 Fmaj13 (x3)
G6

Outro:
Asus2 Bsus4 Cmaj7 D6sus2
Fmaj13

Transcribed by,
tsunvun86

Written by tsunvun86

November 19, 2013 at 10:31 pm

GLAY Solo Covers

leave a comment »


1. MISERY (hide TRIBUTE)

2. Kokodewanai Dokokae ここではない、どこかへ

3. BELOVED

Written by tsunvun86

August 31, 2013 at 11:20 pm

東京事変 Tokyo Jihen – キラーチューン Killer Tune [Bass Tabs]

leave a comment »


Tokyo Jihen - Killer Tune (bass)

Tunning: D# G# C# F#

Intro:
|-------------------------------------------------10-11-13--14-----------------|
|---------------------4-5-6-7-------------12---11--------------14-----15-------|
|---------4---------7---------0-7-0-5~5/--------------------------12-----15----|
|-5----4-----2--2/----------------------------------------------------------13-|

|--------------------------|
|-------12----12h14-14-14\-|
|-14-14----14--------------|
|--------------------------|

|--------------------|     |-----------------|
|--------------------|     |-----------------|
|--------------------|(x3) |-----------------| 
|-5-7-5-0-5-7-5-5--0-|     |-5-7-5-0-5-7-5-5-|


Verse 1:
|-----------------------------------------------------------------------|
|-----------4-5-7-6-6---------------------2-4-2---------------------2h4-|
|-0-4-5-6-7-----------6\4---4-4---4---0-4-------4---------2h4-0-2-4-----|
|-------------------------4-----4---2-------------2-0-2-3---------------|

|-----------------------------4-3-2---------------------------------------|
|-0-4-5-6-7-----7---3-6-----3-------2---2-3-----3-----0-2/4-2-2/14-14-14\-|
|-----------0-5---4-----4-2-----------0-----0-2---2-2---------------------|
|-------------------------------------------------------------------------|


Chorus:
|-------------------------------------------------------------------------|
|-------------------------------------------------------------------------|
|-0(x8)-8(x8)-7(x8)-5(x8)-4(x8)-3(x8)-2-2-4-4-5-5-2-2-7-7-9-9-10-10-11-11-|
|-------------------------------------------------------------------------|

|-------------------------------------------------------------------------------|
|-------------------------------------------------------------------------------|
|-0(x8)-4(x8)-7(x8)-6(x4)-5(x4)-4(x8)-3(x8)-2-2-4-4-5-5-2-2-7-7-9-9-10-10-11-11-|
|-------------------------------------------------------------------------------|


Instrumental:
|--------------------------------------------------------14--------------|
|-------------------10---------------------------------------------------|
|-/12-10-12-8-10-12----/10-12--------/12-10-12-8-10-12/14---/10-12-------|
|------------------------------8--6---------------------------------8--6-|

|----------------------------------------------------------------------|
|-------------------------------------------------------------8/10--8~-|
|-/12-10-12-8-10-12--/10-12--------/12-10-12-8-10-12--/10-12-----------|
|----------------------------8--6--------------------------------------|

|-\14-| |--------------------|
|-----| |--------------------|
|-----| |--------------------|(x4)
|-----| |-5-7-5-0-5-7-5-5--0-|


Verse 2:
|-----------------------19-----18-----18-11------------10--11--13--14-----------------|
|------------4--4/17-17----17-----17---------\12--/11-----------------14-----15-------|
|---------4--------------------------------------------------------------12-----15----|
|-5----4---------------------------------------------------------------------------13-|

|-------------------------|
|-------12----14-14-------|
|-14-14----14-------14----|
|----------------------12-|

|----------------------------------------------------------------------|
|-----------4-5-7-6-6---------------4-2-----------2/4-2-2-0---------2/-|
|-0-4-5-6-7-----------6\4---4-4---4-----4-----0-4-----------2-0-2-4----|
|-------------------------4-----4---------0-2--------------------------|

|--------------------------------4-3-2-----------------------------------------|
|-0-14-15-16~--0-0-0-----6-----3-------2---2-3-----0-----0-2/4-2-2/14-14-14-14-|
|--------------------4-4---4-2-----------0-----0-2---2-2-----------------------|
|------------------------------------------------------------------------------|


repeat Chorus


Outro:
|------------------------------------------13--14--------|
|--------------------------14------12--11----------------|
|-12---14---16--4--5---12------14--------------------\12-|
|--------------------------------------------------------|

|--------------------|     |----------------------------|
|--------------------|     |----------------------------|
|--------------------|(x7) |---------/12--12-12--12-12--| 
|-5-7-5-0-5-7-5-5--0-|     |-5-7-5-0--------------------|

|---------------------------------------------------------------------------------------------------|
|-------------------------------------------11----11---11----11--11-11---12----12---12----12--12-12-|
|----------------------------------------------11---------11----------------12---------12-----------| (x2)
|-5-7-5---5-7-5--5-5---7-9-7---7-9-7--7-7-----------------------------------------------------------|

|-----------------------|
|-----------------------|
|-0-----/12---10h12(x3)-|
|-----------------------|


Transcribed by,
tsunvun86

Written by tsunvun86

August 11, 2013 at 4:51 pm

SCANDAL – 下弦の月 Kagen no Tsuki (Bass Tabs)

with 3 comments


[04/08/2013] Updated “Bridge”
[04/08/2013] Updated “Chorus” & “Chorus 2″


SCANDAL - Kagen no Tsuki (bass)

Intro:
|-9-9h11----9-----9------|
|-------------11----11---|
|----------------------9-|
|------------------------|

|---------------------------------------------------------------|
|-------4(x4)-2(x4)-1---1----------4(x4)-2(x4)-1---1------------|
|-2-3-4---------------2---4--2-3-4---------------2---4--2-3-4---|
|-------------------------------------------------------------2-|


Verse 1:
|----------------|
|----------2-----|
|-2--2--4----4-0-|
|----------------|

|-------------------------------|
|---------2---------------------|
|-----2-4---2--0-2-2-0-4--4-2-0-|(x2)
|-2-2---------------------------|

|-------------------------------|
|---------2---------------------|
|-----2-4---2--0-2-2-0-4--4-4-4-|
|-2-2---------------------------|


Pre-Chorus 1:
|---------------------------------------------------------|
|---------------------------------------------------------|
|-5--5--5---5-5-8--8--8---8-8-9--9--9---9-9-2--2--2---2-2-|
|---------5-------------9-------------9-------------2-----|

|-------------------------------------------|
|-------------------------------------------|
|-5--4-4--2-----------------------------4-4-|
|---------------5--5-0-5--4--4(x3)-0-4------|


Chorus:
|--------------------------------------------------------------------------------------|
|--------------------------------------------------------------------------------------|
|-------------4-6--6(x7)---6-8-9-8-6------------/14-14(x6)-----------------------------|
|-2--2(x12)-6------------6-----------9-7--7(x5)------------14\9-9--9(x6)-10-10--9--9-9-|

|----------------------------------------------------------------------------------------------|
|----------------------------------------------------------------------------------------------|
|----------6-6---------------------------------------/11-11(x6)---------------5---5--7----7--9-|
|-7--7(x8)-----9-9-7-7-6--6(x8)-9-9-7-7-6-6-4--4(x5)------------11\9-9--9(x6)---5-------7------|


Instrumental:
|-9h11(x3)--9----|
|-------------11-|
|----------------|
|----------------|


Verse 2:
|-------------------------------|
|---------2---------------------|
|-----2-4---2--0-2-2-0-4--4-2-0-|
|-2-2---------------------------|

|--------------|
|---4-2--------|
|-------4--2-0-|(x2)
|-2------------|

|-------------------------------|
|---------2---------------------|
|-----2-4---2--0-2-2-0-4--4-2-0-|
|-2-2---------------------------|

|-------------------------------|
|---------2---------------------|
|-----2-4---2--0-2-2-0-4--4-4-4-|
|-2-2---------------------------|


Pre-Chorus 2:
|--------------------------------------------------------|
|-------------------------------------------------9--9---|
|-5--5--5---5-5-8--8--8---8-8-9--9--9---9-9---6-9------9-|
|---------5-------------9-------------9-----7------------|

|-------------------------------------------|
|-------------------------------------------|
|-5--4-4--2-----------------------------4-4-|
|---------------5--5-0-5--4--4(x3)-0-4------|


repeat Chorus


Bridge:
|------------------------------------------------------------|
|--------4-2h4--------4-2h4------------4(x9)---4-6-7-6-4-----|
|----------------------------------2/4-------4-----------7-5-|
|-2(x13)-------2(x13)-------2(x14)---------------------------|

|----------------------------------------------------|
|----------------------------------------------------|
|-/14-14--14--14--12------12--11--11(x6)-------------|
|---------------------12-----------------9-9--10--12-|


Chorus 2:
|--------------------------------------------------------------------------------------|
|--------------------------------------------------------------------------------------|
|-------------4-6--6(x7)---6-8-9-8-6------------/14-14(x6)-----------------------------|
|-2--2(x12)-6------------6-----------9-7--7(x5)------------14\9-9--9(x6)-10-10--9--9-9-|

|--------------------------------------------------------------|
|--------------------------------------------------------------|
|------------------------------6-6-4-4-3-3-4--4(x8)-/16-16(x4)-|
|-7--7(x14)-6--6(x14)-4--4(x8)---------------------------------|

|--------------------------------------------------------------------------------------|
|--------------------------------------------------------------------------------------|
|----------6-6----------------------------------/11-11(x6)---------------5---5--7----7-|
|-7--7(x8)-----9-9-7-7-6(x10)-9-9-7-7-6-6-4(x7)------------11\9-9--9(x6)---5-------7---|


Outro:
|---------------------------------|
|---------------------------------|
|-----0-----0-----0-----0---7-8-9-|
|-2-4---2-4---2-4---2-4-----------|


Transcribed by,
tsunvun86

Written by tsunvun86

August 3, 2013 at 6:13 pm

So, I picked up the electric guitar again recently :D

leave a comment »


Written by tsunvun86

April 13, 2013 at 8:45 pm

Posted in Guitar Cover

Tagged with , , , , , , , ,

Follow

Get every new post delivered to your Inbox.

Join 51 other followers

%d bloggers like this: