Know Music, Know Life

tsunvun86's Guitar Chords & Tabs

Archive for the ‘UNLIMITS’ Category

UNLIMITS – カスケード (Cascade) [Chords & Tabs]

with one comment


UNLIMITS - Cascade

D/F# - 200232
M - palm mute

Intro:
C D G Em
C D
C D Bm C C
C D Em

Verse:
C D Em G
C D Em

Pre-Chorus:
C D Em A
C C D B

Chorus:
C D G Em
C D G B
C D Em A 
C D

Instrumental:
C D Bb C C
C D Em

repeat Verse

repeat Pre-Chorus

repeat Chorus

Solo:
G F Em Eb
G Bm Em Eb
Eb F

Bridge:
Em7 D/F# G
Em D/F# G A (x2)
C C D D
Eb

Chorus 2:
C# Eb G# Fm
C# Eb G# C
C# Eb Fm Bb
C# Eb (x3)

Outro:
C# Eb Cm C#
C# Eb Fm G#
C# Eb Cm C# (x2)

Intro:
-----------------------0-------------------------------0-------------------------0---
-----------------------3--3----------------------------3-------------------------3--3
-----0-----0---0-----0------0--------0-----0---0-----0---------0-----0---0-----0-----
---4-----4---------4----------4----4-----4---------4---------4-----4---------4-------
-3-----3-----3---5-----------------------------------------3-----3-----3---5---------
---------------------------------3-----3-----3---0-----------------------------------

-------------------------------------------------------------------------------------
-8-8-7-7-7--10-10-8-8-7--8-8-7--8-8-7-7-7--10/12-12-12-12\10-10\7-7------------------
-9-9-7-7-7--11-11-9-9-7--9-9-7--9-9-7-7-7--------------------------------------------
-------------------------------------------7/9---9--9--9\7---7\4--4------------------
-------------------------------------------------------------------------------------
-------------------------------------------------------------------------------------

Verse:
-------------------------------------------------------0-----------------------------
----3-------3------3-------3------3-------3------3-----3--3--------------------------
-0-----0-0------0-----0-0------0-----0-0------0-----0-------0------------------------
-------------------------------------------------------------------------------------
-------------------------------------------------------------------------------------
-------------------------------------------------------------------------------------

Pre-Chorus:
---------------------------0---------------------------2-2-2-2-----------------------
----3-------3------3-------3------3-------3------3-----4-4-4-4-----------------------
-0-----0-0------0-----0-0------0-----0-0------0-----0--4-4-4-4-----------------------
-------------------------------------------------------4-4-4-4-----------------------
-------------------------------------------------------2-2-2-2-----------------------
-------------------------------------------------------------------------------------

Instrumental:
-------------------------------------------------------------------------------------
-8-8-7-7-7--10-10-8-8-7--8-8-7--8-8-7-7-7--10/12-12-12-12\10-10\7-7------------------
-9-9-7-7-7--11-11-9-9-7--9-9-7--9-9-7-7-7--------------------------------------------
-------------------------------------------7/9---9--9--9\7---7\4--4------------------
-------------------------------------------------------------------------------------
-------------------------------------------------------------------------------------

Verse 2:
 C                  D             Em                G
--------------------------------------------------7-----7----------------------------
------8------8----8-----7-8--7--------8-----8---8-----8-8--8-------------------------
----7------7----------7---------7---7-----7-------------------7----------------------
-10-----10-----10---7-------------9-----9-----9-----9--------------------------------
-------------------------------------------------------------------------------------
-------------------------------------------------------------------------------------

 C                  D             Em                
--------------------------------------------------10--7------------------------------
------8------8----8-----7-8--7--------8-----8-----8------8---------------------------
----7------7----------7---------7---7-----7-----7----------7-------------------------
-10-----10-----10---7-------------9-----9-----9--------------------------------------
-------------------------------------------------------------------------------------
-------------------------------------------------------------------------------------

Pre-Chorus 2:
   M M   M M   M   M M                                M M M M
-----------------------------------------7-------------------------------------------
-----------------------7-8-----------8-----8---10--10-8-8-7-7-5-5--------------------
-5-5-5-5-5-5-5-5-7-7-7-----9-7-----9---9-----9---------------------------------------
-5-5-5-5-5-5-5-5-7-7-7---------7-9---------------------------------------------------
-3-3-3-3-3-3-3-3-5-5-5---------------------------------------------------------------
-------------------------------------------------------------------------------------

   M M   M M
-----------------     ---------------------------------------------------------------
-----------------     ---------------------------------------------------------------
-5-5-5-5-5-5-4h5-(x2) -7-7-7-7-7-7-7-7-4-4-4-4-4-------------------------------------
-5-5-5-5-5-5-----     -7-7-7-7-7-7-7-7-4-4-4-4-4-------------------------------------
-3-3-3-3-3-3-----     -5-5-5-5-5-5-5-5-2-2-2-2-2-------------------------------------
-----------------     ---------------------------------------------------------------

Solo:
------------8--7---------------9/11--10--8-------------------------------------------
-/8-8----8--------10--8-----8---------------10/12----10-12-10b12b10----------7-8-7-8-
------7------------------7------------------------------------------12---7-9---------
-------------------------------------------------------------------------------------
-------------------------------------------------------------------------------------
-------------------------------------------------------------------------------------

----7----------15----------------15-18-15--------------------------------------------
-10---8--18b20----18-15-------15----------18-14--------------------------------------
------------------------17b19-------------------17-15--------------------------------
------------------------------------------------------17-15----15h17-----------------
------------------------------------------------------------17-----------------------
-------------------------------------------------------------------------------------

Bridge:
 Em7      D/F#     G                 Em       D/F#     G        A
----------------------------0------------------------------------------------------------
-------3--------3--------3-----3-----------3--------3--------3--3-2----------------------
-----0--------2--------2----------2------0--------2--------2----2----2-------------------
---2--------0--------0-----------------2--------0--------0------2------2-----------------
----------------------------------------------------------------0------------------------
-0--------2--------3-----------------0--------2--------3---------------------------------

----------------------------------------------------------------------------------------
----------------------------------------------------------------------------------------
----------------------------------------------------------------------------------------
----------------------------------------------------------------------------------------
----------------------------------------------------------------------------------------
----------------------------------------------------------------------------------------

Outro:
-------------------------------------------------------------------------------------
-9--9--8-8-8--11-11--9--9--8--9--9--8--9--9--8-8-8--11/13-13-13-13\11-11\8-8---------
-10-10-8-8-8--12-12--10-10-8--10-10-8--10-10-8-8-8-----------------------------------
----------------------------------------------------8/11--11-11-11\8--8\5--5---------
-------------------------------------------------------------------------------------
-------------------------------------------------------------------------------------

-------------------------------------------------------------------------------------
-9--9--8-8-8--11-11--9--9--8--9--9--8-----8-8-9--9-----------------------------------
-10-10-8-8-8--12-12--10-10-8--10-10-8-----8-8-10-10----------------------------------
-------------------------------------------------------------------------------------
-------------------------------------------------------------------------------------
-------------------------------------------------------------------------------------

Transcribed by,
tsunvun86

Written by tsunvun86

May 9, 2012 at 10:30 pm

%d bloggers like this: