Know Music, Know Life

tsunvun86's Guitar Chords & Tabs

Posts Tagged ‘guitar

Taeyeon – Set me free (theMUSIC Acoustic Version) [Chords & Tabs]

leave a comment »


Taeyeon - Set me free (theMUSIC Acoustic Version)

#Capo on 2nd fret

Amaj7 - x02224 / 5x665x
A6 - x02222
Emaj9 - 0x4444
Bbm7b5 - 6x665x
G#m7no5 - 4x440x
F#m11no5 - 2x2200
EaddC - 032100
E6 - 042100
F#m11#5 - 2x0200
B11/F# - 2x1200
B9sus4 - x22222

Intro:
 Amaj7                       A6  Emaj9
-4---4---4---4---4---4---4---2------4---4---4---4--------------
-2---2---2---2---2---2---2---2-----4----4---4---4------4-----4-
---2---2---2---2---2---2---2---2--4---4---4---4---4---4----4---
-----------------------------------------------------4---4-----
-0---------------0---------------------------------------------
---------------------------------0------------------0----------

Verse:
 Amaj7                           Emaj9
-4---4---4---4---4---4---4---4------4---4---4---4---------4---
-2---2---2---2---2---2---2---2-----4----4---4---4-------4---4-
---2---2---2---2---2---2---2---2--4---4---4---4---4---4-------
----------------------------------------------------4---------
-0---------------0--------------------------------------------
---------------------------------0------------------0---------

 Amaj7                       A6  Emaj9
-4---4---4---4---4---4---4---2------------4-------4-------4---
-2---2---2---2---2---2---2---2------4---4---4---4-------4-----
---2---2---2---2---2---2---2---2---4--4-------4-------4-------
----------------------------------4-----------------4-------4-
-0---------------0--------------------------------------------
---------------------------------0----------0-------0---------

Pre-Chorus:
 Bbm7b5          Amaj7           G#m7no5                         F#m11no5
---------------------------------------------------------------------------------0--
-------5-------5-------5-------5-------0-------0-------0-------0-0-----0-------0-0--
-----6-------6-------6-------6-------4-------4-------4-------4-------2-------2---2--
---6-------6-------6-------6-------4-------4-------4-------4-------2-------2-----2--
------------------------------------------------------------------------------------
-6-------6-------5-------5-------4-------4-------4-------4-------2-------2-------2--

 E        strum E chord.....
-----------------------------
-------0---------------------
-1---1-----------------------
-2-2-------------------------
-----------------------------
-0---------------------------

Chorus:
E (EaddC E6) F#m11no5 (F#m11#5 B11/F# F#m11#5)
Asus2 Asus2/F# Dsus2 B9sus4
E (EaddC E6) F#m11no5 (F#m11#5 B11/F# F#m11#5)
Asus2 B9sus4
 
Outro:
 Amaj7         Emaj9  
-4---4---4---------4--
-2---2---2-------4----
---2---2---2---4------
----------------------
-0--------------------
--------------0-------

Transcribed by,
tsunvun86/chewie.mushroom

Written by tsunvun86

May 28, 2014 at 11:32 pm

Utada Hikaru – DEEP RIVER (Guitar Tabs)

leave a comment »


After finding out about Hikki’s marriage(1, 2) I decided today is to be Utada Hikaru appreciation day to finally once and for all give up on marrying Hikki myself hahaha. Switched my music player to her playlist and stopped at DEEP RIVER. From there I just kept looping it. I dug out my old handwritten tabs from more than 5 years ago and grabbed my guitar. Below is a typed up and amended version. Hikki I wish you all the happiness in the world.

Utada Hikaru - DEEP RIVER

Bmadd11 - x24430    
Gadd9 - 3x020x 
Asus2 - x02200         
Asus2/F# - 202200
Emadd9 - 024000
Dmaj7/F# - 24023x
F#7sus4 - 242422
Gmaj9 - 3x0202
Dsus2 - x0230
Asus2/C# - x42200

#Capo at first fret

Intro:
 Bmadd11        Gadd9     Asus2          Asus2/F#  Emadd9         Dmaj7/F# 
-------0------------------------0--------------0--------------------------
----------3-----------0---------0--------------0---------0--------------3-
-----4------4-------2---------2----2---------2-----------0--------------2-
---4--------------0---------2--------2-----2-----------4----4---------0---
-2------------------------0--------------------------2--------2-----4-----
----------------3------------------------2---------0--------------2-------

 Gadd9            F#7sus4
---------------------------2-
-------0------0---------2----
-----2------2-----4---4------
---0------0-------2-2--------
------------------4----------
-3----------------2----------

Verse 1:
 Gmaj9                   Asus2                     Emadd9      Dmaj7/F#
-------2-----------2-----------0-----------0---------------------------
-------0-----------0-----------0-----------0-------------0-----------0-
-----2-----------2-----------2-----------2---------------0-----------0-
---0-------0---0-------0---2-------2---2---------------4-----------4---
-------------------------0-----------0---------------2-------2---2-----
-3-----------3---------------------------------3-2-0-----------0-------

   Dsus2
---------0-------------0------
-------3----3--------3----3---
-----2--------2----2--------2-
---0-------------0------------
-2----------------------------
------------------------------

 Gmaj9                   Asus2                     Emadd9
-------2-----------2-----------0-----------0---------------------------
-------0-----------0-----------0-----------0-------------0-----------0-
-----2-----------2-----------2-----------2---------------0-----------0-
---0-------0---0-----------2-------2---2---------------4-----------4---
-------------------------0-----------0---------------2-------2---2-----
-3-----------3---------3-----------------------3-2-0-----------0-------

 Dsus2          Asus2/C#
-------0--------------0-
-----3----3-----------0-
---2--------2-------2---
-0----------------2-----
----------------4-------
------------------------

Chorus:
 Bmadd11        Gadd9     Asus2          Asus2/F#  Emadd9          Dmaj7/F#
-------0------------------------0--------------0---------------------------
----------3-----------0---------0--0-----------0-------------------------3-
-----4------4---2---2---------2------2-------2-----------0-----0---------2-
---4------------0-0---------2----------2---2-----------4-----4---------0---
-2------------------------0--------------------------2-----2---------4-----
----------------3------------------------2---------0---------------2-------

 Gadd9           F#7sus4
--------------------------2--
-------0-----0---------2-----
-----2-----2---------4-------
---0-----0------------------- (x2)
-------------------4---------
-3---------------2-----------

Instrumental:
 Bmadd11        Gadd9          Asus2          Asus2/F#  Emadd9         Dmaj7/F# 
-------------------------------------------------------------------------------
-----3------3--------0----0----------0----0---------0------------------------3-
-------4------------2---2----------2--------2-----2------------0-----0-------2-
---4------4---4---0---------0----2------2-------2------------4-----4-------0---
-2-----------------------------0---------------------------2-------------4-----
----------------3-----------------------------2---------0--------------2-------

   Gadd9          F#7sus4
-----------------------
---------0------0------
-------2------2---4--4-
-----0------0-----2--2-
------------------4--4-
-2-3--------------2--2-

Verse 3:
 Gmaj9                  Asus2                       Emadd9
-------2-----------2----------0-------------0---------------------------
-------0-----------0----------0-------------0-------------0-----------0-
-----2-----------2----------2-------------2---------------0-----------0-
---0-------0---0----------2-------0h2---2---------------4-----------4---
------------------------0-------------0---------------2-------2---2-----
-3-----------3----------------------------------3-2-0-----------0-------

   Dsus2        Asus2/C#    
-------0--------------0------
-----3----3-----------0------
---2--------2-------2----2---
-0----------------2--------2-
----------------4------------
-----------------------------

repeat Chorus (x2)

Outro:
 Bmadd11        Gadd9          Asus2          Asus2/F#  Emadd9           Dmaj7/F# 
-------------------------------------0-------------0----------------------------
-----3------3--------0----0----------0-------------0----------0---------------3-
-------4------------2---2----------2----2--------2------------0---------------2-
---4------4---4---0---------0----2--------2----2------------4-----4---------0---
-2-----------------------------0--------------------------2---------2-----4-----
----------------3----------------------------2---------0----------------2-------

 Gadd9          F#7sus4
------------------
-------0----0-----
-----2----------4-
---0------0-----2-
----------------4-
-3--------------2-

repeat Outro until fade....


Transcribed by,
tsunvun86

Written by tsunvun86

February 4, 2014 at 10:54 pm

Girls Dead Monster – My Song [Chords]

leave a comment »


 

Girls Dead Monster – My Song

Asus4 – x02230
Asus2 – x02200
Fmaj7 – x33210
G6add4 – 320010
G6 – 320000
Dsus2 – xx0230
Dsus2/F# – 2×0230
Fsus4 – 133311
EmMaj7 – 022030
Emadd2 – 022002
Fmaj13 – 133200
Gadd4 – 320013
Bsus4 – x24400
Cmaj7 – x35500
D6sus2 – x57700

Intro:
Am Asus4 Asus2 Am Asus2
Am Asus4 Em

Verse:
Am Em Am Em
Am G Fmaj7 G6add4 G6
Fmaj7 G6 Fmaj7 G6
Fmaj7 Em Am
G

repeat Verse

Pre-Chorus:
C Dsus2
C Em F G
Am Dsus2
C Em Am Eb

Chorus:
G F Em Dsus2
C Dsus2/F#
G Fsus4 F
G F Em Dsus2
C Dsus2/F#

EmMaj7 Emadd2 Fmaj13 (x2)
G6

Instrumental:
Asus2 F G
A (Asus4 A) F G (Gadd4 G)
A (A Asus2 A Asus4 A Asus2 A) F G (Gadd4 G)
A (Asus4 A) F G (Gadd4 G)
Fmaj13 G6

repeat Verse

repeat Pre-Chorus

repeat Chorus

EmMaj7 Emadd2 Fmaj13 (x3)
G6

Outro:
Asus2 Bsus4 Cmaj7 D6sus2
Fmaj13

Transcribed by,
tsunvun86

Written by tsunvun86

November 19, 2013 at 10:31 pm

So, I picked up the electric guitar again recently :D

leave a comment »


Written by tsunvun86

April 13, 2013 at 8:45 pm

Posted in Guitar Cover

Tagged with , , , , , , , ,

FLOWER FLOWER – コーヒー Coffee (Guitar Chords)

leave a comment »


FLOWER FLOWER - Coffee

**Capo at 1st fret

Intro:
Dsus2 Asus2 E F#m (x8)

Verse:
Dsus2 Asus2 E F#m (x4)

Instrumental:
Dsus2 Asus2 E F#m (x2)

repeat Verse

Pre-Chorus:
E F#m Dsus2 Asus2
E F#m Dsus2 E
E

Chorus:
Dsus2 Asus2 E F#m (x3)

Instrumental 2:
Dsus2 Asus2 E F#m (x4)

repeat Verse (x2)

repeat Pre-Chorus

Chorus 2:
Dsus2 Asus2 E F#m (x6)

Outro:
Dsus2 Asus2 E F#m (x4)


Transcribed by,
tsunvun86

Written by tsunvun86

April 3, 2013 at 8:07 pm

FLOWER FLOWER – 愛の歌 Ai no Uta (Guitar Chords & Tabs)

with one comment



FLOWER FLOWER - 愛の歌 Ai no Uta

**Capo at 2nd fret

Intro:
Dsus2 E Asus2 (x2)
Dsus2 E C#m F#m
Dsus2 E Asus2 Asus2 Asus2 Asus2

Verse:
Dsus2 E C#m F#m )
Dsus2 E Asus2   } (x4)

Pre-Chorus:
C#m F#m
Bm E
C#m F#m
Bm Bm E E

Chorus:
Dsus2 E Asus2
Bm E Asus2
Dsus2 E C#m F#m
Dsus2 E Asus2
Asus2

Instrumental:
Dsus2 E Asus2
Bm E Asus2
Dsus2 E C#m F#m
Dsus2 E Asus2
Asus2 (x2)

repeat Verse

repeat Pre-Chorus

repeat Chorus (x2)

Bridge:
F#m E
Dsus2 Asus2
F#m E
Dsus2 (E x8)

repeat Chorus

Chorus 2:
Dsus2 E Asus2
Bm C#7 F#m
Dsus2 E C#m F#m
Dsus2 E Asus2
Asus2 (x3)

Outro:
Dsus2 E Asus2
Bm E Asus2
Dsus2 E C#m F#m
Dsus2 E Asus2
Asus2 (x8)
-----------------------------------------------------------------------------------------

Intro:
 Dsus2 E     Asus2       Dsus2 E     Asus2       Dsus2 E     C#m   F#m
-------------------------------------------------------------------------
-3---0-------------0-----3---0-------------0-----3---0-------5-----2-----
---2-------1-----2---2-----2-------1-----2---2-----2-------0-6-----2-----
-0-------2---2-2-------0-0-------2---2-2-------0-0-------2-----6-5---4-5-
-------------0-----------------------0-----------------------4-----------
-------0-----------------------0-----------------------0-----------2-----

 Dsus2 E     Asus2       Asus2       Asus2       Asus2
-------------------------------------------0-----0--
-3---0-------------0-----------0-----0---0---0---0--
---2-------1-----2---2-------2---2-----2-------2-2--
-0-------2-----2-------2---2-------2-------------2--
-------------0-----------0-----------0-----------0--
-------0--------------------------------------------

Verse:
 Dsus2 E     C#m   F#m    Dsus2 E     Asus2
--------------------------------------------------
-3---0-------5-----2------3---0-------------0-----
---2-------0-6-----2--------2-------1-2---2---2--- (x4)
-0-------2-----6-5---4-5--0-------2-----2-------0-
-------------4------------------------0-----------
-------0-----------2------------0-----------------

Pre-Chorus
 C#m         F#m         Bm          E           C#m         F#m
--------------------------------------------------------------------------
-5-----5-----2-----2-----3-----3-----0-----0-----5-----5-----2-----2------
-6---6---6---2---2---2---4---4---4---1---1---1---6---6---6---2---2---2----
---6-------6---4-------4---4-------4---2-------0---6-------6---4-------4--
-4-----------------------2-----------------------4------------------------
-------------2-----------------------0-----------------------2------------

 Bm         Bm          E           E
------------------------------------0-
-3-----3----3-----3-----0-----0-----0-
-4---4----4-----4---4---1---1---1---1-
---4----------4-------4---2-------2-2-
-2----------2-----------------------2-
------------------------0-----------0-

Chorus:
 Dsus2 E     Asus2       Bm    E     Asus2       Dsus2 E     C#m   F#m
-------------------------------------------------------------------------
-3---0-------------0-----3-----------------0-----3---0-------5-----2-----
---2-------1-2---2---2---4---4-----1-2---2---2-----2-------0-6-----2-----
-0-------2-----2-------0---4-----2-----2-------0-0-------2-----6-5---4-5-
-------------0-----------2-----------0-----------------------4-----------
-------0-----------------------0-----------------------0-----------2-----

 Dsus2 E     Asus2       Asus2
-------------------------0-----
-3---0-------------0-----0-----
---2-------1-2---2---2---2-----
-0-------2-----2-------2-2-----
-------------0-----------0-----
-------0-----------------------

Instrumental:
 Dsus2 E     Asus2       Bm    E     Asus2       Dsus2 E     C#m   F#m
-------------------------------------------------------------------------
-3---0-------------0-----3-----------------0-----3---0-------5-----2-----
---2-------1-2---2---2---4---4-----1-2---2---2-----2-------0-6-----2-----
-0-------2-----2-------0---4-----2-----2-------0-0-------2-----6-5---4-5-
-------------0-----------2-----------0-----------------------4-----------
-------0-----------------------0-----------------------0-----------2-----

 Dsus2 E     Asus2       Asus2       Asus2       Asus2
-------------------------------------0-----0-----0--
-3---0-------------0-----------0---------0---0---0--
---2-------1-----2---2-------2---2-----2-------2-2--
-0-------2-----2-------2---2-------2-------------2--
-------------0-----------0-----------0-----------0--
-------0--------------------------------------------

repeat Verse

repeat Pre-Chorus

repeat Chorus (x2)

Bridge:
F#m E
Dsus2 Asus2
F#m E
Dsus2 (E x8)

repeat Chorus

Chorus 2:
Dsus2 E Asus2
Bm C#7 F#m
Dsus2 E C#m F#m
Dsus2 E Asus2
Asus2 (x3)

Outro:
Dsus2 E Asus2
Bm E Asus2
Dsus2 E C#m F#m
Dsus2 E Asus2
Asus2 (x8)


#############################################################################################

**Without capo

Intro:
Esus2 F# Bsus2 (x2)
Esus2 F# Ebm G#m
Esus2 F# Bsus2 Bsus2 Bsus2 Bsus2

Verse:
Esus2 F# Ebm G#m )
Esus2 F# Bsus2   } (x4)

Pre-Chorus:
Ebm G#m
C#m F#
Ebm G#m
C#m C#m F# F#

Chorus:
Esus2 F# Bsus2
C#m F# Bsus2
Esus2 F# Ebm G#m
Esus2 F# Bsus2
Bsus2

Instrumental:
Esus2 F# Bsus2
C#m F# Bsus2
Esus2 F# Ebm G#m
Esus2 F# Bsus2
Bsus2 (x2)

repeat Verse

repeat Pre-Chorus

repeat Chorus (x2)

Bridge:
G#m F#
Esus2 Bsus2
G#m F#
Esus2 (F# x8)

repeat Chorus

Chorus 2:
Esus2 F# Bsus2
C#m Eb7 G#m
Esus2 F# Ebm G#m
Esus2 F# Bsus2
Bsus2 (x3)

Outro:
Esus2 F# Bsus2
C#m F# Bsus2
Esus2 F# Ebm G#m
Esus2 F# Bsus2
Bsus2 (x8)


Transcribed by,
tsunvun86

Written by tsunvun86

April 3, 2013 at 7:44 pm

FLOWER FLOWER – 宝物 Takaramono (Guitar Tabs)

leave a comment »


The audio above is a COVER of an original song made by FLOWER FLOWER.
It was never our intention to plagiarize YUI’s song or damage in any way her current works. We just decided we wanted to do a tribute of this song, because of its beautiful melody and meaningful lyrics. We certainly hope they will release this song officially in the future and we beg you to support YUI’s new stage by purchasing her music when the time comes.

Vocal: **
Guitar: tsunvun86 (Oz)
Keyboard: pmmonkey (Malaysia)
Bass: Jun (Philippines)
Mix and programming: Kikino! (Chile)

FLOWER FLOWER - Takaramono

Dsus2 - xx0230
Bm7 - x24232
Bm7/A - x04232
F#7 - 242322
s - slap strings

Intro:
 Dsus2       s  G     Dsus2    Bm7   Bm7/A s  G     Dsus2
---0---------x-------------------0---------x---------------------
-3---3-3--3--x--3-----3----3---3---3-3--3--x--3-----3------------
-2-----2--2--x----0-2-2----2---2-----2--2--x----0-2-2-----2------ (x2)
-0-----2--2--x--------0--4-----------------x--------0---4---4----
-------------x-------------4---2-----0--0--x---------------------
-------------x--3--------------------------x--3------------------

Verse:
 Dsus2       s  G     Dsus2    Bm7   Bm7/A s  G     Dsus2
---0---------x-------------------0---------x---------------------
-3---3-3--3--x--3-----3----3---3---3-3--3--x--3-----3------------
-2-----2--2--x----0-2-2----2---2-----2--2--x----0-2-2-----2------ (x2)
-0-----2--2--x--------0--4-----------------x--------0---4---4----
-------------x-------------4---2-----0--0--x---------------------
-------------x--3--------------------------x--3------------------

Instrumental:
 Dsus2       s  G     Dsus2    Bm7   Bm7/A s  G     Dsus2
---0---------x-------------------0---------x---------------------
-3---3-3--3--x--3-----3----3---3---3-3--3--x--3-----3------------
-2-----2--2--x----0-2-2----2---2-----2--2--x----0-2-2-----2------
-0-----2--2--x--------0--4-----------------x--------0---4---4----
-------------x-------------4---2-----0--0--x---------------------
-------------x--3--------------------------x--3------------------

Pre-Chorus:
 Bm7            Bm7/A          G              G
---------------------------------------------------------------
-3-----3--------3-----3--------3-----3--------3-----3----------
-2---2------2---2---2------2---4---4------4---4---4------4-----
---4------4---4---4------4---4---5------5---5---5------5---5---
-2--------------0----------------------------------------------
-------------------------------3--------------3----------------

 Bm7            Bm7/A          G              A
---------------------------------------------------------------
-3-----3--------3-----3--------3-----3-------------------------
-2---2------2---2---2------2---4---4------4---6-----6----------
---4------4---4---4------4---4---5------5---5-7---7------7-----
-2--------------0-------------------------------7------7---7---
-------------------------------3--------------5----------------

Chorus:
 D              F#7            Bm7            Bm7/A          G              A
-------------------------------------------------------------------------------------------
-3-----3--------2-----2--------3-----3--------3-----3--------3-----3-----------------------
-2---2------2---3---3------3---2---2------2---2---2------2---4---4------4---6-----6-------- (x2)
---4------4---4---2------2---2---4------4---4---4------4---4---5------5---5-7---7------7---
-5-----------------------------2--------------0-------------------------------7------7---7-
----------------2--------------------------------------------3--------------5--------------

repeat Instrumental

repeat Verse

repeat Pre-Chorus

repeat Chorus (x2)

Outro:
 D              F#7            Bm7            Bm7/A          G              A
-------------------------------------------------------------------------------------------
-3-----3--------2-----2--------3-----3--------3-----3--------3-----3-----------------------
-2---2------2---3---3------3---2---2------2---2---2------2---4---4------4---6-----6--------
---4------4---4---2------2---2---4------4---4---4------4---4---5------5---5-7---7------7---
-5-----------------------------2--------------0-------------------------------7------7---7-
----------------2--------------------------------------------3--------------5--------------

 G              Gm                 D
-------------------------3---------2---2h5p2----------
-3-----3--------3-----3-----3------3---------3--------
-4---4------4---3---3----------3---2-----------2------
---5------5---5---5----------------0-------------4----
---------------------------------------------------5--
-3--------------3-------------------------------------

Transcribed by,
tsunvun86

Written by tsunvun86

April 3, 2013 at 7:21 pm

%d bloggers like this: