Know Music, Know Life

tsunvun86's Guitar Chords & Tabs

Archive for the ‘miwa’ Category

miwa – Napa (intro) Tabs

with one comment


miwa - Napa (intro)

*Capo at 3rd fret

----------------------------------
-3----3--------3-3-----3----3---3-
-0--0-2----0h2---2-----2----2---2-
---------0----------2-----0---0---
-----------------0-----2----------
-3----2---------------------------

--------------------------
-3----3--------3-2--2--3--
-0--0-2----0h2---2--2--2--
---------0----------------
-----------------0-----2--
-3----2-------------------

Transcribed by,
tsunvun86

Written by tsunvun86

March 18, 2013 at 7:07 pm

Posted in Chords & Tabs, Guitar Cover, miwa

Tagged with , , , ,

miwa – 441 [Chords & Tabs]

with 2 comments


miwa - 441

Intro:
Asus2 B G#m C#m
Asus2 B E
Asus2 B G#m C#m
D A7 B
Asus2 B Asus2
B
Asus2 B G#m C#m
Asus2 G#m B

Verse:
E B C#m Asus2 B
G#m B
Asus2 B

Pre-Chorus:
C#m Asus2 B (x2)
F#m G#m Am* B
G#

Chorus:
Asus2 B G#m C#m
Asus2 B E
Asus2 B G#m C#m
F#m G#m Asus2 B (x2)

Instrumental:
Asus2 B G#m C#m
Asus2 G#m B

repeat Verse

repeat Pre-Chorus

repeat Chorus

repeat Instrumental

repeat Chorus

Outro:
Asus2 B G#m C#m
Asus2 G#m B
E


Intro:
 Asus2         B             G#m           C#m
-0-----0-------0-----0-------0-----0-------0-----0--------
-----0----0--------4----4--------4----4--------4----4-----
---2--------2----4--------4----4--------4----4--------4---
----------------------------------------------------------
-0-------------2---------------------------4--------------
-----------------------------4----------------------------

 Asus2         B              E             E
-0-----0-------0-----0------------------------------------
-----0----0--------4----4-----7-----7-------10p9----------
---2--------2----4--------4-------9----9---------9------9-
--------------------------------9--------9---------9--9---
-0-------------2------------------------------------------
------------------------------0-------------0-------------

 Asus2         B             G#m           C#m
-0-----0-------0-----0-------0-----0-------0-----0--------
-----0----0--------4----4--------4----4--------4----4-----
---2--------2----4--------4----4--------4----4--------4---
----------------------------------------------------------
-0-------------2---------------------------4--------------
-----------------------------4----------------------------

 D              A7             B              Asus2 B  Asus2
-2-----0h2---------------------0-----0--------0--------0--
-----3-----3-0--2-----0h2----------4----4---------0-4--0--
---2----------------0-------0----4--------4-----2------2--
-0----------------2-------2----------------------------2--
----------------0--------------2--------------0-----2--0--
----------------------------------------------------------

-7---------7------------------------------------------12---------
---7-----7-------------8--9--9/11--9--8----8--9--9/11----11--9---
-----9-9------9-11\9-9------------------9------------------------
-----------------------------------------------------------------
-----------------------------------------------------------------
-----------------------------------------------------------------

-----------------------------------------------------------------
------------------------12-10-9-----9----------------------------
------8--9--9/11--9--8----------11----9-9/11---------------------
-7/9-------------------------------------------------------------
-----------------------------------------------------------------
-----------------------------------------------------------------





Transcribed by,
tsunvun86

Written by tsunvun86

July 5, 2011 at 10:14 pm

Posted in Chords & Tabs, Guitar Cover, miwa

Tagged with , , , ,

miwa – Otoshimono [Chords & Tabs]

leave a comment »


miwa - Otoshimono

Am7 - x02010
G/B - x20033
C/E - 032010
Esus4 - 022200
D/F# - 200232 or just play D
E/G# - 422100 or just play E

Intro:
C Em F E7
Am7 G F G
C

Verse:
C G/B Am7 G
F C/E Dm G
C G/B Am7 G C
F C/E Dm G

Pre-Chorus:
F G Am7
F E7 Am7 G
F G E7 Am7
Dm Esus4 E

Chorus:
Am7 Em     )
F G C G/B  } (x3)
Am7 G D/F#
Dm Em F
G

Instrumental:
C Em F E7
Am7 G F G

repeat Verse

repeat Pre-Chorus

Chorus 2:
Am7 Em
F G C G/B
Am7 G F Em
F G C G/B
Am7 Em
F G C G/B
Am7 G D/F#
Dm Em F
G

Solo:
Am E/G# G D/F#
F D/F# G G E/G#
Am E/G# G D/F#
F G

Bridge:
F C/E G Am7 (x2)
Dm Em
F Am7
Dm G

repeat Chorus

E/G#

repeat Chorus 2

Outro:
Am7 G F C/E
Dm G C

Solo:
-----------------------------------------------------------------
-5----5--------------------------13--15-13-15b17-15b17b15-13-----
-7b9--7b9b7p5-7------------12-14---------------------------------
----------------6-6---/14----------------------------------------
-----------------------------------------------------------------
-----------------------------------------------------------------

-------------------------------------------7-----7---------------
-18\13-13\10-10\6-6--19\15-15\10 10\7-7-8--10b12-10b12-----------
---------------------------------------------------------9-------
-----------------------------------------------------------------
-----------------------------------------------------------------
-----------------------------------------------------------------

-----------------------------------------------------------------
-8h10-10--10-10-10\9-9--9-9-9\8-8--8-8-8\7-7----------------8-10-
--------------------------------------------------5-5---5/9------
-----------------------------------------------/7-----7----------
-----------------------------------------------------------------
-----------------------------------------------------------------

-8-10b12b10p8--10b12-10b12b10p8-10-------15----15b17~~b15--------
-----------------------------------------------------------------
-------------------------------------/12----12-------------------
-----------------------------------------------------------------
-----------------------------------------------------------------
-----------------------------------------------------------------

Transcribed by,
tsunvun86 @ little-miwa.com

Written by tsunvun86

December 10, 2010 at 12:59 pm

miwa – Don’t cry anymore [Chords]

leave a comment »


miwa - don't cry anymore

*CAPO AT 1ST FRET***

Asus2 - x02200
Bsus2 - x24422
C#sus4 - x46674

Intro:
Bsus2 G#
C#m Asus2 E Bsus2 (x2)
C#m Asus2 Bsus2
C#m Asus2 E Bsus2
Bsus2

Verse:
C#m Bsus2 Asus2 (x4)
G#m C#m Asus2 Bsus2 (x2)
Bsus2 G#

Chorus:
C#m Asus2 E Bsus2 (x2)
C#m Asus2 Bsus2

C#m Bsus2 Asus2

Verse 2:
C#m Bsus2 Asus2 (x2)
G#m C#m Asus2 Bsus2 (x2)
G#

repeat Chorus

C#sus4 C#

Bridge:
Asus2 C#m Bsus2 (x3)
Asus2 Bsus2 

Chorus 2:
C#m Asus2 E Bsus2 (x6)
C#m Asus2 Bsus2 (x2)

Outro:
C#m Asus2 E Bsus2 (x2)
C#m


----------------------------------------------------

*WITHOUT CAPO***

Bbsus2 - x13311
Csus2 - x35533
C#sus4 - x57785

Intro:
Csus2 A
Dm Bbsus2 F Csus2 (x2)
Dm Bbsus2 Csus2
Dm Bbsus2 F Csus2
Csus2

Verse:
Dm Csus2 Bbsus2 (x4)
Am Dm Bbsus2 Csus2 (x2)
Csus2 A

Chorus:
Dm Bbsus2 F Csus2 (x2)
Dm Bbsus2 Csus2

Dm Csus2 Bbsus2

Verse 2:
Dm Csus2 Bbsus2 (x2)
Am Dm Bbsus2 Csus2 (x2)
A

repeat Chorus

Dsus4 D

Bridge:
Bbsus2 Dm Csus2 (x3)
Bbsus2 Csus2 

Chorus 2:
Dm Bbsus2 F Csus2 (x6)
Dm Bbsus2 Csus2 (x2)

Outro:
Dm Bbsus2 F Csus2 (x2)
Dm

Chords by,
tsunvun86

Written by tsunvun86

September 4, 2010 at 6:58 pm

Posted in Chords & Tabs, miwa

Tagged with , , , ,

miwa – chAngE [Chords & Tabs]

with 3 comments


miwa - chAngE

C/E - X7555X
Bb/D - X5333X

Intro:
Em C G D (x2)
C
C#m A E B (x2)

Verse:
C#m A E B (x4)

Pre-Chorus:
A B
C#m B A G#m F#m
B

Chorus:
Em C G D
Bm C G D
Em C G D
C D
Em C D
C

Instrumental:
C#m A E B

repeat Verse

repeat Pre-Chorus

repeat Chorus

Solo:
C#m A E B (x2)

Bridge:
C D Em
C D B
Em C G D (x2)

Chorus 2:
Fm C# G# Eb
Cm C# G# Eb
Fm C# G# Eb
C# Eb
Fm C# Eb
Fm C/E Eb Bb/D C# Eb
C#

Outro:
Dm Bb F C (x2)

Intro/Instrumental Solo:
--------------------------------------------------------------------
---------------9--9-------9------9--------9------------------9------
--------------------11-9----11-9---11--9----11-9-11--11-9-11---11-9- (x2)
-/11--11-9-11-------------------------------------------------------
--------------------------------------------------------------------
--------------------------------------------------------------------

Lick at Pre-Chorus:
--------------------------------------------------------------
--------------------------------------------------------------
------9-11--11/16---11--9-11-9-8------------------------------
-/11----------------------------------------------------------
--------------------------------------------------------------
--------------------------------------------------------------

Chorus Lead:
----7--------------------------------------------------------------
------8-------8-------------10-----------10-------7---------8------
-/9-----9-------9--------12----12-----11----11------7---------9----
----------/10-----10-/12----------/12----------/9-----9-/10-----10-
-------------------------------------------------------------------
-------------------------------------------------------------------

---------------------------------7------------------------------------------
--------10-------------------------8-------8-------------10-----------10----
-----12----12-----11-12-11----/9-----9-------9--------12----12-----11----11-
-/12----------/12----------12----------/10-----10-/12----------/12----------
----------------------------------------------------------------------------
----------------------------------------------------------------------------

Solo:
-16----16-16-16----16-16-16----16-----19-16-16-19-16-16-19-16-16-19-16-16--19b21-19b21-19b21-19b21--19b22-
-19b21~21~21-19b21~21~21-19b21-19b21----------------------------------------------------------------------
----------------------------------------------------------------------------------------------------------
----------------------------------------------------------------------------------------------------------
----------------------------------------------------------------------------------------------------------
----------------------------------------------------------------------------------------------------------

-x-x-x-x-x------------------------------------------------------------------------------------------------
-x-x-x-x-x-14-14---------------------------------------------------------------------17-17-17-17-17-------
-x-x-x-x-x-14-14-16------------------------------------------------------------------16-16-16-16-16-------
-x-x-x-x-x-----------------------------14-14-18-18-18-18-18--------------14-14-18-18----------------------
-x-x-x-x-x-----------------14-14-16-16-----------------------14-14-16-16----------------------------------
-x-x-x-x-x-----------16-16--------------------------------------------------------------------------------

-19----19-19----19-19-19-19-19-19-19-19-19-19-19b21~21~21~21~21~21~21-
----17-------17-------17-17-17-17-17-17-17-17-17b19~19~19~19~19~19~19-
----------------------------------------------------------------------
----------------------------------------------------------------------
----------------------------------------------------------------------
----------------------------------------------------------------------

Chorus 2 Lead:
-----8------------------------------------------------------------------------------------------------
-------9--------9--------------11-----------11--------8----------9--------------11--------------------
-/10-----10-------10--------13----13-----12----12-------8----------10--------13----13-----12-13-12----
------------/11------11-/13----------/13----------/10-----10-/11------11-/13----------/13----------13-
------------------------------------------------------------------------------------------------------
------------------------------------------------------------------------------------------------------

-----8--------------------------------------------------------
-------9--------9--------------11-----------11----------------
-/10-----10-------10--------13----13-----12----12-------------
------------/11------11-/13----------/13----------------------
--------------------------------------------------------------
--------------------------------------------------------------

Outro Solo:
-----------------------------------------------------------------------------------------
----------------10--10--------10-------13b15b13---------------------------------10-------
-----------------------12-10-----12-10----------10-12--12b14b12-10-12--12-10-12----12-10-
-/12--12-10-12---------------------------------------------------------------------------
-----------------------------------------------------------------------------------------
-----------------------------------------------------------------------------------------

-----------------------------------------------------------------------------------------
----------------10--10--------10-------13b15b13----13b15b13------------------------------
-----------------------12-10-----12-10----------10----------10--12--12-10-12-12b14b12-10-
-/12--12-10-12---------------------------------------------------------------------------
-----------------------------------------------------------------------------------------
-----------------------------------------------------------------------------------------

Chords & Tabs by,
tsunvun86

Written by tsunvun86

August 31, 2010 at 4:05 pm

%d bloggers like this: