Know Music, Know Life

tsunvun86's Guitar Chords & Tabs

Archive for the ‘SCANDAL’ Category

SCANDAL – 下弦の月 Kagen no Tsuki (Bass Tabs)

with 3 comments


[04/08/2013] Updated “Bridge”
[04/08/2013] Updated “Chorus” & “Chorus 2”


SCANDAL - Kagen no Tsuki (bass)

Intro:
|-9-9h11----9-----9------|
|-------------11----11---|
|----------------------9-|
|------------------------|

|---------------------------------------------------------------|
|-------4(x4)-2(x4)-1---1----------4(x4)-2(x4)-1---1------------|
|-2-3-4---------------2---4--2-3-4---------------2---4--2-3-4---|
|-------------------------------------------------------------2-|


Verse 1:
|----------------|
|----------2-----|
|-2--2--4----4-0-|
|----------------|

|-------------------------------|
|---------2---------------------|
|-----2-4---2--0-2-2-0-4--4-2-0-|(x2)
|-2-2---------------------------|

|-------------------------------|
|---------2---------------------|
|-----2-4---2--0-2-2-0-4--4-4-4-|
|-2-2---------------------------|


Pre-Chorus 1:
|---------------------------------------------------------|
|---------------------------------------------------------|
|-5--5--5---5-5-8--8--8---8-8-9--9--9---9-9-2--2--2---2-2-|
|---------5-------------9-------------9-------------2-----|

|-------------------------------------------|
|-------------------------------------------|
|-5--4-4--2-----------------------------4-4-|
|---------------5--5-0-5--4--4(x3)-0-4------|


Chorus:
|--------------------------------------------------------------------------------------|
|--------------------------------------------------------------------------------------|
|-------------4-6--6(x7)---6-8-9-8-6------------/14-14(x6)-----------------------------|
|-2--2(x12)-6------------6-----------9-7--7(x5)------------14\9-9--9(x6)-10-10--9--9-9-|

|----------------------------------------------------------------------------------------------|
|----------------------------------------------------------------------------------------------|
|----------6-6---------------------------------------/11-11(x6)---------------5---5--7----7--9-|
|-7--7(x8)-----9-9-7-7-6--6(x8)-9-9-7-7-6-6-4--4(x5)------------11\9-9--9(x6)---5-------7------|


Instrumental:
|-9h11(x3)--9----|
|-------------11-|
|----------------|
|----------------|


Verse 2:
|-------------------------------|
|---------2---------------------|
|-----2-4---2--0-2-2-0-4--4-2-0-|
|-2-2---------------------------|

|--------------|
|---4-2--------|
|-------4--2-0-|(x2)
|-2------------|

|-------------------------------|
|---------2---------------------|
|-----2-4---2--0-2-2-0-4--4-2-0-|
|-2-2---------------------------|

|-------------------------------|
|---------2---------------------|
|-----2-4---2--0-2-2-0-4--4-4-4-|
|-2-2---------------------------|


Pre-Chorus 2:
|--------------------------------------------------------|
|-------------------------------------------------9--9---|
|-5--5--5---5-5-8--8--8---8-8-9--9--9---9-9---6-9------9-|
|---------5-------------9-------------9-----7------------|

|-------------------------------------------|
|-------------------------------------------|
|-5--4-4--2-----------------------------4-4-|
|---------------5--5-0-5--4--4(x3)-0-4------|


repeat Chorus


Bridge:
|------------------------------------------------------------|
|--------4-2h4--------4-2h4------------4(x9)---4-6-7-6-4-----|
|----------------------------------2/4-------4-----------7-5-|
|-2(x13)-------2(x13)-------2(x14)---------------------------|

|----------------------------------------------------|
|----------------------------------------------------|
|-/14-14--14--14--12------12--11--11(x6)-------------|
|---------------------12-----------------9-9--10--12-|


Chorus 2:
|--------------------------------------------------------------------------------------|
|--------------------------------------------------------------------------------------|
|-------------4-6--6(x7)---6-8-9-8-6------------/14-14(x6)-----------------------------|
|-2--2(x12)-6------------6-----------9-7--7(x5)------------14\9-9--9(x6)-10-10--9--9-9-|

|--------------------------------------------------------------|
|--------------------------------------------------------------|
|------------------------------6-6-4-4-3-3-4--4(x8)-/16-16(x4)-|
|-7--7(x14)-6--6(x14)-4--4(x8)---------------------------------|

|--------------------------------------------------------------------------------------|
|--------------------------------------------------------------------------------------|
|----------6-6----------------------------------/11-11(x6)---------------5---5--7----7-|
|-7--7(x8)-----9-9-7-7-6(x10)-9-9-7-7-6-6-4(x7)------------11\9-9--9(x6)---5-------7---|


Outro:
|---------------------------------|
|---------------------------------|
|-----0-----0-----0-----0---7-8-9-|
|-2-4---2-4---2-4---2-4-----------|


Transcribed by,
tsunvun86

Written by tsunvun86

August 3, 2013 at 6:13 pm

SCANDAL – Taiyou SCANDALOUS 太陽スキャンダラス [Chords]

leave a comment »


SCANDAL - Taiyou SCANDALOUS

Intro:
E
C#m E F#m A B G# (x2)
C#m G# C#m

Verse:
C#m B F# A B G# (x2)

Pre-Chorus:
A E B C#m B
A E B B
B G#

Chorus:
C#m E F#m F#m
B G#
C#m E A B G#
C#m G# C#m
A B
C#m C#m C#m

Instrumental:
C#m

Verse 2:
C#m B F# A B G#

repeat Pre-Chorus

Chorus 2:
C#m E F#m F#m
B G#
C#m E A B G#
C#m G# C#m
A B

Bridge:
C#m E A B    )
C#m E A F#m  } (x2)
C#m E A B
A B G#

Solo:
A B C#m B
A B C#m C#
B

repeat Pre-Chorus

G# (x4)

repeat Chorus

C#m B C#m
A B A G#

Outro:
C#m E F#m A B G# (x2)
C#m G# C#m


Transcribed by,
tsunvun86

Written by tsunvun86

June 12, 2012 at 11:35 pm

SCANDAL – HARUKAZE [Chords & Tabs]

with 2 comments


SCANDAL - HARUKAZE

Intro:
E B C#m C#m
A B C#m C#m

Verse:
E B C#m C#m )
A B C#m C#m } (x2)

Pre-Chorus:
A B C#m E (x3)
A A B B

Chorus:
A B C#m E
A B C#m C#m
A B G#m C#m
A B C#m E
A A B B

Instrumental:
E B C#m C#m
A B C#m C#m

repeat Verse

repeat Pre-Chorus

repeat Chorus

Bridge:

A A G#m G#m )
A A B C#m   } (x2)

Solo:
A A G#m G#m
A A B B

Chorus 2:
A B C#m E   )
A B C#m C#m } (x2)
A B G#m C#m
A B C#m E
A A B B

Outro:
E B C#m C#m
A B C#m C#m
E


Intro/Chorus:
-----------------------------------------------------------------
-7h9-7-------7h9-7---------------7h9-7-------7h9-7---------------
-------9-8---------9-8---6---9---------9-8---------9-8---6---8h9-
-----------9-----------9---9---------------9-----------9---9----- 

(x2)
-----------------------------------------------------------------
-----------------------------------------------------------------

Verse (2nd repetition):
 E            B              C#m7         C#m7
---------------------------------------------------------
-------9-------------9-------------9------------12-------
---9------9-----11------11-----9------9-----9-------9----
-9---9--------9----9---------9---9--------9---9----------
---------------------------------------------------------
---------------------------------------------------------
 Amaj7          B            C#m7         C#m7
----------------------7----------------------------------
---------9-------------------------9------------12-------
----9-------9-----8------8-----9------9-----9-------9----
-11---11--------9---9--------9---9--------9---9----------
---------------------------------------------------------
---------------------------------------------------------

Pre-Chorus:
 A             B             C#m           E
---------------------------------------------------------
-------9-------------9-------------9-------------10-9----
---9------10-----9------10-----9------10-----9-----------
-9---9---------9---9---------9---9---------9---9---------
---------------------------------------------------------
---------------------------------------------------------

 A             B             C#m           E
---------------------------------------------------------
-------9-------------9-------------9-------12-10-9-------
---9------10-----9------10-----9------10-----------9-----
-9---9---------9---9---------9---9-----------------------
---------------------------------------------------------
---------------------------------------------------------

 A            B            C#m             E
--------------------7------------------------------------
-------9---------------------------9-----------------9---
---9------9-----9------8------9-------9-----9---9-10---9-
-9---9--------9---9--------10---10--------9---9----------
---------------------------------------------------------
---------------------------------------------------------
 A                      B
------------------------7--7------7-7-7-7----------------
-----10-----9-----------7---------7-7-7-7----------------
---------9-----9--------8-----8---8-8-8-8----------------
-11---------------11-------------------------------------
---------------------------------------------------------
---------------------------------------------------------



Transcribed by,
tsunvun86

image

Written by tsunvun86

October 12, 2011 at 10:23 pm

SCANDAL – BURN [Chords & Tabs]

with 2 comments


 
SCANDAL - BURN


Intro:
Bb C Dm C 
Bb C Dm (x3)

Verse:
Bb C (x2)
Bb Dm
Bb Am
Dm C

Chorus:
Bb C Dm (x3)
Am
Bb C Dm (x3)
Bb C

Instrumental:
Bb C Dm C

Verse 2:
Bb C
Bb Dm
Bb Am
Dm C

repeat Chorus

Solo:
Bb C Dm (x2)
Bb C Am Dm
Bb C

repeat Chorus

Outro:
Bb Eb C# F# G#
Bb Eb C# F# F
Bb Eb C# F# G# (x3)
Bb Eb C# F#
Bb



Intro:
----------------------------------5--x-5-x-x-5-x-x-3--
----------------------------------6--x-6-x-x-6-x-x-5--
-------3--x-3-x-x-5-x-x-----------7--x-7-x-x-7-x-x-5--
-------3--x-3-x-x-5-x-x-3h5-----5-7--x-7-x-x-7-x-x-5--  (x2)
-1-3/5-1--x-1-x-x-3-x-x-----3/5---5--x-5-x-x-5-x-x-3--
------------------------------------------------------

-8--6-5-6-5----------------8--6-5-6-5-----------------
-10-8-6-8-6--6-5--6/8--6---10-8-6-8-6--6-5--6/8--8/10-
-------------7-5--7/9--7---------------7-5--7/9--9/10-
------------------------------------------------------
------------------------------------------------------
------------------------------------------------------

Solo:
-----------------------------------------------------------------------------------
-----------/13--13--11-10------------------------10--------------------------------
-/7-9-10-7----------------12--12b14-12-10-----10----10/12--12--12-10-9-9--9b109-7--
-------------------------------------------12--------------------------------------
-----------------------------------------------------------------------------------
-----------------------------------------------------------------------------------

-----------------------------------------------10------10------10--------12-----12-
-------8/10-8----------8-10b11--10-8-----------------------------------------------
-----7---------------9---------------10h12-10------10------10------10/12-----12----
-7-8------------8-10---------------------------------------------------------------
-----------------------------------------------------------------------------------
-----------------------------------------------------------------------------------

----12-----12-----12-------20-----20-----20----------------------------------------
-----------------------/17-----17-----17-------------------------------------------
-12-----12-----12------------------------------------------------------------------
-----------------------------------------------------------------------------------
-----------------------------------------------------------------------------------
-----------------------------------------------------------------------------------



Transcribed by,
tsunvun86

Written by tsunvun86

August 20, 2011 at 1:48 am

SCANDAL – LOVE SURVIVE [Chords & Tabs]

with 6 comments


SCANDAL - LOVE SURVIVE

Intro:
F G Em Am  )
F G Am     } (x2)

Verse:
F F Em Am (x2)

Pre-Chorus:
Dm Em Am (x2)
Bb Am Dm E

Chorus:
F G Em Am )
Dm G Am   } (x2)
Dm G

Instrumental:
F G Em Am
F G Am

repeat Verse

Pre-Chorus 2:
Dm Em Am
Bb Am Dm E

Chorus 2:
F G Em Am
Dm G Am
Dm G

Bridge:
F G Em Am
F G Am
F G Em Am
Dm G

Instrumental 2:
Am Bb
Am F Em
Am Bb
Am C Dm
Am Bb
Am F Em
Am Bb
Em F F# G G# Am

Chorus 3:
F G Em Am )
Dm G Am   } (x3)
Dm Dm Dm G


Outro:
F G Em Am
F G Am


Intro/Instrumental/Outro Riff:
-/12-12-12-12-13-13-13-15--15-15--10-10-10-7-7-7--8-7--5----------
----------------------------------------------------------5-------
-/9--9--9--9--10-10-10-12--12-12--7--7--7--4-4-4--5-4--2----------
----------------------------------------------------------2-------
------------------------------------------------------------------
------------------------------------------------------------------

-12-12-12-13-13-13-15--15-15--8-8-8-7-7-7-7-8--7-7-7-8----8-7-----
--------------------------------------------------------------8---
-9--9--9--10-10-10-12--12-12--5-5-5-4-4-4-4-5--4-4-4-5----------7-
------------------------------------------------------------------
------------------------------------------------------------------
------------------------------------------------------------------
(Instrumental & Outro starts here)
-12-12-12-13-13-13-15--15-15--10-10-10-7-7-7--8-7--5--------------
------------------------------------------------------5-----------
-9--9--9--10-10-10-12--12-12--7--7--7--4-4-4--5-4--2--------------
------------------------------------------------------2-----------
------------------------------------------------------------------
------------------------------------------------------------------

-12-12-12-13-13-13-15-15-15/19-19-19-19-17-17-17-17-17-17-17-17--17-17-17-17-17-17-
-----------------------------------------------------------------------------------
-9--9--9--10-10-10-12-12-12/16-16-16-16-14-14-14-14-14-14-14-14--14-14-14-14-14-14-
-----------------------------------------------------------------------------------
-----------------------------------------------------------------------------------
-----------------------------------------------------------------------------------


Instrumental 2:
------------------------------------------------------------------
------------------------------------------------------------------
------------------------------------------------------------------
-5/7--7-7--5--7--7-8-8-8--5/7--7-7--3--3--3-3-2-2-----------------
-5/7--7-7--5--7--7-8-8-8--5/7--7-7--3--3--3-3-2-2-----------------
-3/5--5-5--3--5--5-6-6-6--3/5--5-5--1--1--1-1-0-0-----------------

------------------------------------------------------------------
------------------------------------------------------------------
------------------------------------5--5--5--7--------------------
-5/7--7-7--5--7--7-8-8-8--5/7--7-7--5--5--5--7--------------------
-5/7--7-7--5--7--7-8-8-8--5/7--7-7--3--3--3--5--------------------
-3/5--5-5--3--5--5-6-6-6--3/5--5-5--------------------------------

------------------------------------------------------------------
------------------------------------------------------------------
------------------------------------------------------------------
-5/7--7-7--5--7--7-8-8-8--5/7--7-7--3--3--3-3-2-2-----------------
-5/7--7-7--5--7--7-8-8-8--5/7--7-7--3--3--3-3-2-2-----------------
-3/5--5-5--3--5--5-6-6-6--3/5--5-5--1--1--1-1-0-0-----------------

------------------------------------------------------------------
------------------------------------------------------------------
------------------------------------------------------------------
-5/7--7-7--5--7--7-8-8-8---2--3--4--5--6-7------------------------
-5/7--7-7--5--7--7-8-8-8---2--3--4--5--6-7------------------------
-3/5--5-5--3--5--5-6-6-6---0--1--2--3--4-5------------------------



Transcribed by,
tsunvun86 @ SCANDAL HEAVEN

Written by tsunvun86

June 20, 2011 at 11:49 am

SCANDAL – Haruka [Chords]

leave a comment »


SCANDAL - Haruka

C/G - 332010 or 335553
E/G# - 476454 or 476xxx(power)
Am/F# - 202210 

Intro:
F G Em Am
Dm G C C7
F G Am Em
Dm G Am

F G Em Am
F G Am C

Verse:
F G Em Am
Dm G C
F G Em Am
Dm Em F G C

Pre-Chorus:
G# C/G Am/F# F
Em Am Dm G

Chorus:
F G Em Am
Dm G C C7
F G Am Em
Dm G Am

F G Em Am
Dm G C C7
F E/G# Am Bb
Dm G Am

Instrumental:
F G Em Am
F G Am C

Verse 2:
F G Em Am
Dm G C C7
F G Em Am
Dm Em F G Am
C

Chorus 2:
F G Em Am
Dm G C C7
F G Am Em
Dm G Am

F G Em Am
Dm G C C7
F E/G# Am Bb
Dm G

Solo:
Bb
Am 
G# 
G C

Pre-Chorus 2:
G# C/G Am/F# F
Em Am
Dm G
G

repeat Chorus
F G Am Em
Dm G Am


Outro:
F G Em Am )
F G Am C  } (x2)
F


Transcribed by,
tsunvun86

Written by tsunvun86

March 20, 2011 at 2:52 am

Posted in Chords & Tabs, SCANDAL

Tagged with , , ,

SCANDAL – Playboy PartII [Chords & Tabs]

leave a comment »


SCANDAL - Playboy PartII

C#/F - x8666x
Eb/G - x(10)888x

Intro:
Bbm Fm )
C# G#  } (x2)

Verse:
Bbm Fm Ebm C# F (x2)

Pre-Chorus:
Ebm Bbm
Ebm F

Chorus:
Bbm Fm 
Ebm G# C# F
F# C#/F 
Ebm Fm F# F
Ebm F

Instrumental:
Bbm Fm
C# G#

Verse 2:
Bbm Fm Ebm C# F

repeat Pre-Chorus

repeat Chorus

Bridge:
Bbm F7 G# Eb/G
F# C#/F Ebm F
Bbm F7 G# Eb/G
F# F

repeat Chorus

Bbm
G# Bbm (x2)

Outro:
Bbm Fm )
C# G#  } (x2)
Bbm



Intro/Instrumental/Outro Solo:
Guitar 1
-------------------------------------      -----------------------------------------
-------------------------------------      ----------9------------------------------
---6---------------------------------      ---6-8/10---10\8-6-----------------------
-8---6-8---------------------------6- (x2) -8---------------------------------------
---------6/8--6-4-6--6-4-6-4-6-4-6---      -----------------------------------------
-------------------------------------      -----------------------------------------
(instrumental starts here...)
-------------------------------------      -----------------------------------------
-------------------------------------      ----------9------------------------------
---6---------------------------------      ---6-8/10---10\8-6-----------------------
-8---6-8---------------------------6- (x2) -8-----------------8---------------------
---------6/8--6-4-6--6-4-6-4-6-4-6---      -----------------------------------------
-------------------------------------      -----------------------------------------

Guitar 2
16----------------------------------------------------      -------------16----------
----14------------------------------------------------      ----14-16/18----18\16-14-
-15----13-15---------------------------------------13-      -15----------------------
-------------13/15--13-11-13--13-11-13-11-13-11-13---- (x2) -------------------------
------------------------------------------------------      -------------------------
------------------------------------------------------      -------------------------
(instrumental starts here...)
16----------------------------------------------------      -------------16-------------
----14------------------------------------------------      ----14-16/18----18\16-14----
-15----13-15---------------------------------------13-      -15----------------------15-
-------------13/15--13-11-13--13-11-13-11-13-11-13---- (x2) ----------------------------
------------------------------------------------------      ----------------------------
------------------------------------------------------      ----------------------------

Lick at the end of Bridge:
Guitar 1
------------------------------------------------------------------------------
------------------------------------------------------------------------------
----------8---10--------------------------------------------------------------
-7---10-----8-----------------------------------------------------------------
---8----8---------------------------------------------------------------------
------------------------------------------------------------------------------

Guitar 2
-------------11----13---------------------------------------------------------
-10----13-------11------------------------------------------------------------
----10----10------------------------------------------------------------------
------------------------------------------------------------------------------
------------------------------------------------------------------------------
------------------------------------------------------------------------------




Chords & Tabs by,
tsunvun86 @ SCANDAL HEAVEN

Written by tsunvun86

February 7, 2011 at 10:14 pm

SCANDAL – Pride [Chords & Tabs]

with one comment


I might change some things after I double-triple check all of it. But it should be fine 😛

SCANDAL - Pride

G#/C - x3111x or x36xxx(Power) or play C
G#/C# - x46544
C#maj7 - x46564 or x465xx (Power)
Bb/D - x5333x or x58xxx(Power) or play D
Eb/G - 365343 or 36xxxx(Power) or play Eb
Fm/D - xx0111 or xx0564or x56xxx(Power)
Bbm/G - 3x332x or 3433xx or 34xxxx(Power)

Intro:
Fm Eb C#
G#/C Bbm Eb G#
C# Eb Fm
C# Eb G# Fm
C#maj7

Verse:
Fm Cm G#/C# Bb
Fm Eb G# Bb C

Pre-Chorus:
C# Cm Fm
Bbm Cm C# Bb/D Eb
C

Chorus:
Fm Eb C#            )
G#/C Bbm Eb G# Eb/G } (x3)
Fm Eb C#
G#/C Bbm Eb G#
C# G#/C Bbm
F#7

Instrumental:
C# Cm (x2)

Verse 2:
Fm Cm C# Bb C

repeat Pre-Chorus

Chorus 2:
Fm Eb C#            )
G#/C Bbm Eb G# Eb/G } (x3)
Fm Eb C#
G#/C Bbm Eb G#

Bridge:
F# Fm
Ebm G# C#
Bbm7 Cm7 Fm
Fm/D Bbm/G C

Solo:
Fm Eb G#
G#/C# Bbm C
G#/C# Cm (x2)

Chorus 3:
Fm Eb G# Bb
Fm Eb C#
G#/C Bbm Eb G#
Fm Eb C#            )
G#/C Bbm Eb G# Eb/G } (x2)
Fm Eb C#
G#/C Bbm Eb G#
C# G#/C Bbm Cm
C# Bb/D Eb
F#7

Outro:
C# Eb Fm    )
C# Eb G# Fm } (x2)
C#maj7

Intro Solo:
Guitar 1
-----------------------------------------------------------------------------
-----------------------------------4---------------------------6-------------
---8-5-----------------5-3h5p3---3---6-5-----------------5--8-----5~~\3------
-6------6/8-6-8-6---6----------6----------6/8-6-8-6---6------------------3~\-
------------------8---------------------------------8------------------------
-----------------------------------------------------------------------------

Guitar 2
----------------------------------------------------11-----------------------------
----16-13-------------------------13-11h13p11----11----14-13-----------------------
-13---------13/15-13-15-13----13--------------13--------------13/15-13-15-13----13-
---------------------------15------------------------------------------------15----
-----------------------------------------------------------------------------------
-----------------------------------------------------------------------------------

---------13----------------
-11--16------13~~\11-------
----------------------10~\-
---------------------------
---------------------------
---------------------------

Verse:
 Fm            Cm               G#/C#              Bb
------------11\-------------------x-x-4-x-4--------------------------------------
-9--x-9\---------9-x-8-x-x-9--8---x-x-4-x-4----4-----x-x-6-x-6-x-x-6-x-x---------
-10-x-10\---8\---8-x-8-x-x-8--8---x-x-5-x-5------5---x-x-7-x-7-x-x-7-x-x-7b8b7---
--------------------------------------------/6-----------------------------------
---------------------------------------------------------------------------------
---------------------------------------------------------------------------------
 Fm                          Eb                     G#
----------------------------------------------------4-x-4-x-x-4-x-x-4-x-4------
-9--x-9--x-x-9--x-x-9--x-9---8-x-8-x-x-8-x-x-8-x-8--4-x-4-x-x-4-x-x-4-x-4------
-10-x-10-x-x-10-x-x-10-x-10--8-x-8-x-x-8-x-x-8-x-8--5-x-5-x-x-5-x-x-5-x-5------
----------------------------------------------------6-x-6-x-x-6-x-x-6-x-6------
-------------------------------------------------------------------------------
-------------------------------------------------------------------------------

 Bb               C
----------------------------
-3--3--3--3-3-x-x-5--5------
-3--3--3--3-3-x-x-5--5------
----------------------------
----------------------------
----------------------------

Pre-Chorus:
        Bbm          Cm        C#      Bb/D  Eb            C
-----------------------------------------------------------12/13--12-12--------
-11/13--11~\9--9~\8--8~\4--4---------------------------------------------------
-------------------------------6-6-6-6-7-7-7-8--8-8--8-8---9/10---9--9---------
-8/10---8~\6---6~\5--5~\1--1---6-6-6-6-8-8-8-8--8-8--8-8-----------------------
-------------------------------4-4-4-4-5-5-5-6--6-6--6-6-----------------------
-------------------------------------------------------------------------------

Instrumental:
Guitar 1
----------------------------------------------------------------------------------
----------------------------------------------------------------------------------
----------------------------------------------------------------------------------
-6----6--5--6----6--5--6----6--5--6/8-8-8-6-6----6--5--6----6--5--6----6--5-----8-
----6----------6----------6--------------------6----------6----------6------6/8---
----------------------------------------------------------------------------------

Verse 2:
-----------------15p13----------------
------------16------------------------
-13---13/15---------------------------
--------------------------------------
--------------------------------------
--------------------------------------

Bridge:
-----11-13-16------11-13----------------------------------------9--------11-----
------------------------------14--13-11-16--18--16\13-13---9-------11-------13--
-10--8--10-13-10---8--10--11---------------------------------10-------12--------
----------------------------------------13--15--13\10-10------------------------
--------------------------------------------------------------------------------
--------------------------------------------------------------------------------

-15--15---------------13--13-13--13-13---12--12-12---
--------16-------------------------------------------
-------------10~/15---10--10-10--10-10---9---9--9----
-----------------------------------------------------
-----------------------------------------------------
-----------------------------------------------------

Solo:
Guitar 1
------------------------------------------------------------------------------15/16-
-------------------------------------------------13----16-13-----16-13-----13-------
-/8---------------------------------6/8--6-5----------------------------------------
-----6--5-6-5-4---------6-8-8/10--6----------8------15--------15--------15----------
-----------------6---/8-------------------------------------------------------------
------------------------------------------------------------------------------------

-15----------------------------------------
----16--------15-17-----15-17---15--15-13--
-------15--15--------15--------------------
-------------------------------------------
-------------------------------------------
-------------------------------------------

Guitar 2
---------------------3/4--3-----------------------------
-----4------4---------------4---------------------------
-5-----5------5----5----------3----3-5----3-5---6--6-5--
---3------3------3---------------3------3---------------
--------------------------------------------------------
--------------------------------------------------------

Outro Solo:
Guitar 1
--------------------------------------------------------------------
-----------------------------------4---------------------------4--6-
-5--5-3h5p3---3--------5-3h5p3---3---6-5--5-3h5p3---3-------5------- (x2)
------------6---6-3-6----------6------------------6---6-3-6---------
--------------------------------------------------------------------
--------------------------------------------------------------------

Guitar 2
---------------------------------------------------11----------------------------------------11--13-
-13--13-11h13p11----11-----------13-11h13p11----11----14-13--13-11h13p11----11-----------13--------- (x2)
-----------------13----13-10-13--------------13--------------------------13----13-10-13-------------
----------------------------------------------------------------------------------------------------
----------------------------------------------------------------------------------------------------
----------------------------------------------------------------------------------------------------

Transcribed by,
tsunvun86 @ SCANDAL HEAVEN

Written by tsunvun86

February 6, 2011 at 10:13 pm

Posted in Chords & Tabs, SCANDAL

Tagged with , , , , , ,

SCANDAL – CUTE! [Chords & Tabs]

with 2 comments


SCANDAL - CUTE

C#/F - 143121 OR 14xxxx(POWER)
Bb/D - X5333X OR 58xxxx(POWER)
t - tapping
alt.pick - alternate picking


Intro:
Eb (x3) )
G#      } (x2)
C#

Verse:
Eb G Cm Bbm Eb )
G# G#m Gm Cm   } (x2)
Fm G# Eb       )

Pre-Chorus:
B Eb
B
Bb B C#

Chorus:
F# C#/F Ebm B
Bbm Bb/D Ebm
G#m C#
F# C#/F Ebm B
Bbm Bb/D Ebm E
G#m C#

Instrumental:
Eb (x3)
G#
Eb (x3)
G# C#

Verse:
Eb G Cm Bbm Eb
G# G#m Gm Cm
Fm G# Eb

repeat Pre-Chorus

repeat Chorus

Solo:
B Eb
B
Bb B C#

Chorus 2:
F# C#/F Ebm B )
Bbm Bb/D Ebm  } (x2)  
G#m C#        )
F# C#/F Ebm C# B
Bbm Bb/D Ebm E
G#m Bbm B C#

Outro:
Eb (x3) )
G#      } (x4)
Eb



Intro:
-----------------------------------------------------      ---
-----------------------------------------------------      ---
-8--8--8-8--8--8--8-8-8-8-8-8--8--8-8----------------      -6-
-8--8--8-8--8--8--8-8-8-8-8-8--8--8-8--6--6--6------- (x2) -6-
-6--6--6-6--6--6--6-6-6-6-6-6--6--6-6--6--6--6-3-4-3-      -4-
---------------------------------------4--4--4-------      ---


Verse:
 Eb      G       Cm     Bbm     Eb       G#      G#m     Gm
---     ---     ---     ---     ---     ---     ----    ---
---     ---     -4-     ---     -4-     ---     -4-     -3-
-8-(x8) -4-(x8) -5-(x8) -6-(x4) -6-(x4) -5-(x4) -4-(x4) -3-(x4)
-8-     -5-     -5-     -8-     ---     -6-     -6-     -5-
---     ---     ---     ---     ---     ---     ---     ---
---     ---     ---     ---     ---     ---     ---     ---

 Cm      Fm       alt.pick
---     ----     --------------------------------------------
-4-     ----     ---------------8-9-8--------8-9-8-----------
-5-(x4) -10-(x4) ------------8---------8--8------------------
-5-     -10-     -------6--6----5-6-5--------5-6-5-----------
---     ----     -------6--6-6---------6--6------------------
---     ----     -15\6--4--4---------------------------------

-------------------------------------------------------------
-11-9-8-----------------6----------16\15-15\13-13\11-11--10--
--------10-8-7--------7----8-10-8----------------------------
-----------------9--9--------------13\12-12\10-10\8--8---8---
-------------------------------------------------------------
-------------------------------------------------------------
                                         alt.pick
------------------------------7--8---------------------------
-------------------------------------9-----------------8-9-8-
-10--8--6--5------------------4--5---10-------------8--------
--------------6-8-9--6-6-6-5---------10--------6--6----5-6-5-
-8---6--4--3-----------------------------------6--6-6--------
-----------------------------------------15\6--4--4----------

-11--11--9\8--8\6--6---
-----------------------
-8---8---6\5--5\3--3---
-----------------------
-----------------------
-----------------------


Pre-Chorus:
----------------------------------------------------
----------------------------------------------------
---------4/8-8--8b10b8------------------------------
-------4----------------------4/9-9---3--3-3-3-3----
-2/6-6------------------2/6-6---------1--1-1-1-1----
----------------------------------------------------

----------------------------------------------------
----------------------------------------------------
----------------------------------------------------
-----4--4-4-4-4-----6-------------------------------
---1-2--2-2-2-2-1-2-4-------------------------------
-4--------------------------------------------------


Instrumental:
-----------------------------------------------------
-----------------------------------------------------
-8--8--8-8--8--8--8-8-8-8-8-8--8--8-8----------------
-8--8--8-8--8--8--8-8-8-8-8-8--8--8-8--6--6--6------- (x2)
-6--6--6-6--6--6--6-6-6-6-6-6--6--6-6--6--6--6-3-4-3-
---------------------------------------4--4--4-------


Verse 2:
 Eb                               G
-----11----11----13----11----11-------10----10-----13-13-13-13-
---11--11----11----11----11----11---12--12----12---------------
-12------12----12----12----12-----10------10----10-10-10-10-10-
---------------------------------------------------------------
---------------------------------------------------------------
---------------------------------------------------------------

---------------------------------------------------------------
-8---11-11--11--11--11--11--11--11--11--11---------------------
-8---8--8---8---8---8---8---8---8---8-------10--8--6--5--------
-10-------------------------------------8----------------6-8-9-
--------------------------------------------8---6--4--3--------
---------------------------------------------------------------
                     alt.pick
----------7--8----------------------------11--11--9\8--8\6--6--
-----------------9-----------------8-9-8-----------------------
----------4--5---10-------------8---------8---8---6\5--5\3--3--
-6-6-6-5---------10--------6--6----5-6-5-----------------------
---------------------------6--6-6------------------------------
---------------------15\6--4--4--------------------------------


Solo:
Guitar 1
-------------------------------------------------------
-------------------------------------------------------
-------4/8-8/12-12--12b13b12---------4/8-8-------------
-1/4-4-------------------------1/4-4-------------------
-------------------------------------------------------
-------------------------------------------------------

-------------------------------------------------------
-t11p6(repeat)---t12p7(repeat)---t14p9(repeat)---------
-------------------------------------------------------
-------------------------------------------------------
-------------------------------------------------------
-------------------------------------------------------

Guitar 2
-------------------------------------------------------
-------------------------------------------------------
---------4/8-8--8b10b8---------------------------------
-------4-----------------------4/9-9-------------------
-2/6-6-------------------2/6-6-------------------------
-------------------------------------------------------


Outro:
-----------------------------------------------------      ---
-----------------------------------------------------      ---
-8--8--8-8--8--8--8-8-8-8-8-8--8--8-8----------------      -8-
-8--8--8-8--8--8--8-8-8-8-8-8--8--8-8--6--6--6------- (x4) -8-
-6--6--6-6--6--6--6-6-6-6-6-6--6--6-6--6--6--6-3-4-3-      -6-
---------------------------------------4--4--4-------      ---



Transcribed by,
tsunvun86 @ SCANDAL HEAVEN

Written by tsunvun86

January 28, 2011 at 9:40 pm

SCANDAL – Pride TV Size Chords & Tabs

with one comment


Get full song chords and tabs *here*.

SCANDAL - Pride TV Size

G#/C - x3111x or x36xxx(Power) or play C
C#maj7 - x46564 or x465xx (Power) 
Bb/D - x5333x or x58xxx(Power) or play D
Eb/G - 365343 or 36xxxx(Power) or play Eb

Intro:
Fm Eb C#
G#/C Bbm Eb G#
C# Eb Fm
C# Eb G# Fm
C#maj7

Verse:
Fm Cm C# Bb
Fm Eb G# Bb C

Pre-Chorus:
C# Cm Fm
Bbm Cm C# Bb/D Eb
C

Chorus:
Fm Eb C#            )
G#/C Bbm Eb G# Eb/G } (x3)
Fm Eb C#
G#/C Bbm Eb G#

Outro:
C# G#/C Bbm
F#7
Fm

Intro Solo:
Guitar 1
-----------------------------------------------------------------------------------
----------16-13----------------------------------------16-14-13--------------------
-13/15-13---------13/15-13-15-13----13--15-13/15-13-15-----------13/15-13-15-13----
---------------------------------15---------------------------------------------15-
-----------------------------------------------------------------------------------
-----------------------------------------------------------------------------------

-------------13----------------
---------16------13~~\11-------
-13--15-------------------10~\-
-------------------------------
-------------------------------
-------------------------------

Guitar 2
-------------------------------------------------------------------------------
-----------------------------------------------------------------6-------------
-------8-5---------------------------8-6-5--------------------8-----5~~\3------
-6/8-6------6/8-6-8-6---6--8-6/8-6-8--------6/8-6-8-6---6--8---------------3~\-
----------------------8-------------------------------8------------------------
-------------------------------------------------------------------------------


Transcribed by,
tsunvun86 @ SCANDAL HEAVEN

Written by tsunvun86

January 9, 2011 at 11:19 pm

%d bloggers like this: