Know Music, Know Life

tsunvun86's Guitar Chords & Tabs

Posts Tagged ‘the

Taeyeon – Set me free (theMUSIC Acoustic Version) [Chords & Tabs]

leave a comment »


Taeyeon - Set me free (theMUSIC Acoustic Version)

#Capo on 2nd fret

Amaj7 - x02224 / 5x665x
A6 - x02222
Emaj9 - 0x4444
Bbm7b5 - 6x665x
G#m7no5 - 4x440x
F#m11no5 - 2x2200
EaddC - 032100
E6 - 042100
F#m11#5 - 2x0200
B11/F# - 2x1200
B9sus4 - x22222

Intro:
 Amaj7                       A6  Emaj9
-4---4---4---4---4---4---4---2------4---4---4---4--------------
-2---2---2---2---2---2---2---2-----4----4---4---4------4-----4-
---2---2---2---2---2---2---2---2--4---4---4---4---4---4----4---
-----------------------------------------------------4---4-----
-0---------------0---------------------------------------------
---------------------------------0------------------0----------

Verse:
 Amaj7                           Emaj9
-4---4---4---4---4---4---4---4------4---4---4---4---------4---
-2---2---2---2---2---2---2---2-----4----4---4---4-------4---4-
---2---2---2---2---2---2---2---2--4---4---4---4---4---4-------
----------------------------------------------------4---------
-0---------------0--------------------------------------------
---------------------------------0------------------0---------

 Amaj7                       A6  Emaj9
-4---4---4---4---4---4---4---2------------4-------4-------4---
-2---2---2---2---2---2---2---2------4---4---4---4-------4-----
---2---2---2---2---2---2---2---2---4--4-------4-------4-------
----------------------------------4-----------------4-------4-
-0---------------0--------------------------------------------
---------------------------------0----------0-------0---------

Pre-Chorus:
 Bbm7b5          Amaj7           G#m7no5                         F#m11no5
---------------------------------------------------------------------------------0--
-------5-------5-------5-------5-------0-------0-------0-------0-0-----0-------0-0--
-----6-------6-------6-------6-------4-------4-------4-------4-------2-------2---2--
---6-------6-------6-------6-------4-------4-------4-------4-------2-------2-----2--
------------------------------------------------------------------------------------
-6-------6-------5-------5-------4-------4-------4-------4-------2-------2-------2--

 E        strum E chord.....
-----------------------------
-------0---------------------
-1---1-----------------------
-2-2-------------------------
-----------------------------
-0---------------------------

Chorus:
E (EaddC E6) F#m11no5 (F#m11#5 B11/F# F#m11#5)
Asus2 Asus2/F# Dsus2 B9sus4
E (EaddC E6) F#m11no5 (F#m11#5 B11/F# F#m11#5)
Asus2 B9sus4
 
Outro:
 Amaj7         Emaj9  
-4---4---4---------4--
-2---2---2-------4----
---2---2---2---4------
----------------------
-0--------------------
--------------0-------

Transcribed by,
tsunvun86/chewie.mushroom
Advertisements

Written by tsunvun86

May 28, 2014 at 11:32 pm

ONE OK ROCK – The Beginning [Chords]

with 4 comments


ONE OK ROCK - The Beginning

E/G# - 476454 OR 476xxx(POWER) OR 47xxxx(POWER)
D/F# - 254232 OR 254xxx(POWER) OR 25xxxx(POWER)

Intro:
Am F C G (x5)
F F G G

Verse:
Am F C G (x2)

Pre-Chorus:
F G F E

Chorus:
Am F C G
Am F C G E/G#

Instrumental:
Am F C G (x3)
F F G G

repeat Verse

repeat Pre-Chorus

Chorus 2:
Am F C G
Am F C G E/G# (x3)

Solo:
F E Am (x3)
G
F E Am (x3)
E

Chorus 3:
Am F C G (x3)
Am F C G D/F#
F G C Am G
F G E F

Transcribed by,
tsunvun86

Written by tsunvun86

August 27, 2012 at 9:57 pm

Meeting YUI for the first time at Hong Kong airport

with 4 comments


Today, a group of us from YUI Lover forum arrived at the airport 2 hours prior to the arrival of YUI’s flight. Everyone was getting excited and people started screaming randomly which really confused the heck out of the rest of us thinking YUI had came out from the arrival gate. Earlier that day Kevin aka hbdcrKevin gave me a bag of goodies containing a candle and “the shaker”, exactly same type YUI had been using. I was shaking it non stop for the whole time out of nervousness. Couple of times other people has complained that the shaking made them more nervous πŸ˜›

When YUI finally walked out, everyone was shouting as expected. Suddenly the group of Hong Kong paparazzi that has been waiting around swarmed in front of YUI totally blocking our view. Seeing one of our guys was also in the group I decided I’d join in as well. I was a meter in front of YUI and started shaking “the shaker”. YUI immediately noticed it and pointed at my way with an “OH!” expression on her face. That’s when we smiled at each other πŸ˜€ That was my first interaction with YUI on that day.

Edit: Found the part where YUI pointed at me when I went up and shook the shaker! It’s around 00:39 and really brief after she bowed and the guy came over and blocked her a bit from camera view. See if you can catch it! πŸ˜€

The rest of the crowd swarmed around YUI giving her gifts and what not. I decided I should have the shaker signed. So I got a marker from one of the forum members, natchi. I managed to get in between and again a meter away from her. I shouted her name and she saw me and acknowledge me, the guy with the shaker. Or maybe just my imagination πŸ˜› This was what happened:

Me: YUI! Sign wo kudasai!
YUI: *shakes head apologetically waving hand*
Me: Onegaishimasu! D:
YUI: *shakes head apologetically waving hand*
Me: *nods understandingly*
YUI: *nods apologetically holding hands together, mouthing something*

Edit: Wow I actually found that part where she refused my request in this video from the HK news where she said “Sorry” “Thank you” while nodding at around 00:53. I knew she was mouthing something but couldn’t hear it at the time:

That was the second time she had a moment with me! πŸ˜€ and there were 2 more after that!

Crowds swarming around her endlessly. The 3rd time, she’s already headed to the exit. I got close to her and held out my hand together with few other people. I actually touched her finger tips only because of the 3 or 4 other hands trying to hold her hand. Cyclo, who had his hand in as well looked at me, we looked at reach other and our hands and went “WOOO!” amazed that we made contact with YUI. I decided that wasn’t enough being it not a full grip πŸ˜›

I got close again, yelled out her name and held out my hand. This time she reached our and gave me a full grip πŸ˜€

Few minutes after that and she was out the exit.

All that time I thought I was recoding a video with my cellphone capturing all the moments. But apparently I failed to start the recording OTL so you can call my bluff if you don’t believe in my testimony πŸ˜›

I’m typing this before bed so that I can capture as much detail as I can remember. Some are quite blurry now :/ Will be adding corrections and edits when I get recorded footages.

Tomorrow, YUI HHITS live!

Signing off,
tsunvun86

Written by tsunvun86

June 26, 2011 at 3:42 am

Posted in YUI

Tagged with , , , , , , , , , , , , , ,

YUI – Parade [Chords & Tabs]

with one comment


YUI - Parade

DM7 - XX0222
G - 320003
G7 - 320001

Intro:
DM7 G G7 (x2)

Verse:
DM7 G G7 (x2)
Em G
Em G A

Chorus:
D Em )
G A  } (x2)

Instrumental:
D G (x2)

repeat Verse

repeat Chorus

Instrumental 2:
D G 
A

Bridge:
Em G
Em G A

repeat Chorus (x2)

Outro:
DM7 G (x4)
DM7

Chords by,
tsunvun86 @ YUI-Lover Forum & Fansite

Written by tsunvun86

October 6, 2010 at 1:01 am

Posted in Chords & Tabs, YUI

Tagged with , , , , , , , ,

YUI – Cinnamon [Chords & Tabs]

leave a comment »


YUI - Cinnamon

Intro:
G A Bm D (x2)

Verse:
G A Bm D (x4)

Chorus:
G A Bm D (x4)

repeat Verse

repeat Chorus

Bridge:
C G
C Bm

repeat Chorus

Outro:
G A Bm D (x2)
G

Intro Solo:
Guitar 1
------------------------------------------------
-5/7-5-----------------------5/7-5--------------
--------7-6-----4--6-7/2-2----------7-6--6--7---
-------------7----------------------------------
------------------------------------------------
------------------------------------------------
Guitar 2
------------------------------------------------
-9/10-9-7--------------------9/10-9--7------7---
----------9--6-7-----------------------9--9-----
------------------9-11/7-7----------------------
------------------------------------------------
------------------------------------------------

Chords & Tabs by,
tsunvun86 @ YUI-Lover Forum & Fansite

Written by tsunvun86

October 6, 2010 at 12:55 am

Posted in Chords & Tabs, YUI

Tagged with , , , , , , , ,

YUI – es.car [Chords & Tabs]

leave a comment »


YUI - es.car

C#sus4 - x46674

Intro:
C#sus4
C#m B A
F# G#
C#m B A
F# G#

Verse:
C#m A G#m F#m (x2)
A G#m F#m (x2)
G#

Chorus:
C#m B A F#
C#m B A F# G#

Instrumental:
C#m B A
F# G#
C#m B A
F# G#

repeat Verse

repeat Chorus

C#m

Instrumental (Piano Solo):
C#m B A
F# G#
C#m B A

Bridge:
C D Em G (x3)
C A
F#m G#

Chorus 2:
C#m B F# A
C#m B A G#

repeat Chorus

Outro:
C#m B A
F# G#
C#m B A
F# G#
C#m


Intro/Instrumental Solo:
-------------------------------------------
-----------10/12-10-9----------------------
------9---------------11b13b11p9-11--11b13-
-/11----11---------------------------------
-------------------------------------------
-------------------------------------------

-------------------------------------------
-----------10/12-10-9----------------------
------9---------------11b13b11p9-11--9-----
-/11----11---------------------------------
-------------------------------------------
-------------------------------------------

Outro Solo:
----------------------------------------------------------
-----------10/12-10-9-------------------------------------
------9---------------11b13b11p9-11--11b13~~~~-11b13b11-9-
-/11----11------------------------------------------------
----------------------------------------------------------
----------------------------------------------------------

-------------------------------------------
-----------10/12-10-9----------------------
------9---------------11b13b11p9-11b13--9--
-/11----11---------------------------------
-------------------------------------------
-------------------------------------------




Transcribed by,
tsunvun86 @ YUI-Lover Forum & Fansite

Written by tsunvun86

October 6, 2010 at 12:50 am

Posted in Chords & Tabs, YUI

Tagged with , , , , , , , ,

%d bloggers like this: