Know Music, Know Life

tsunvun86's Guitar Chords & Tabs

Archive for the ‘Inoue Joe’ Category

Inoue Joe – CLOSER [Chords]

leave a comment »


Inoue Joe - CLOSER

B/Eb - x6444x or x69xxx
F#/Bb - x14322 or x14xxx

Intro:
E F# B G#m (x4)
E F# B/Eb E
E F# B
E

Verse:
B F#/Bb G#m F# B
E B/Eb C#m F# F#/Bb
B F#/Bb G#m F# B
E B/Eb C#m F#

Chorus:
E F# B G#m (x2)
E F# B/Eb E
E F# B

E

repeat Verse

repeat Chorus

Bridge
B F#/Bb G#m F# B
E B/Eb C#m F#
B F#/Bb G#m F# B
E B/Eb C#m F#
E

Chorus 2:
E F# B G#m (x2)
E F# B/Eb E
E F#

repeat Chorus



Intro Lick:
-7--11--7--9--7--9--7--9-     -7--11--7--9--7-7-
-------------------------     ------------------
-------------------------(x3) ------------------
-------------------------     ------------------
-------------------------     ------------------
-------------------------     ------------------


Verse:
---     ---     ---     ---     ---     ---     ---      ---
-4-     -2-     -0-     ---     -4-     -5-     -4-      -2-
-4-(x8) -3-(x8) -1-(x8) -3-(x4) -4-(x4) -4-(x8) -4-(x16) -3-(x8)
---     ---     ---     -4-     ---     ---     ---      ---
---     ---     ---     ---     ---     ---     ---      ---
---     ---     ---     ---     ---     ---     ---      ---

---     ---     ---     ---     ---     ---     ---    
-4-     -2-     -0-     ---     -4-     -5-     -4-    
-4-(x8) -3-(x8) -1-(x8) -3-(x4) -4-(x4) -4-(x8) -4-(x8)
---     ---     ---     -4-     ---     ---     --- 
---     ---     ---     ---     ---     ---     ---
---     ---     ---     ---     ---     ---     --- 


Chorus/Chorus 2:
-------11--------9--------9--------9--
-12--------12-------12-------12-------
----11--------11-------11-------11----(x7)
--------------------------------------
--------------------------------------
--------------------------------------


Chorus before Bridge:
-------11--------11---------9---------9--
-12--------12--------12--------12--------
----11--------11--------11---------11----(x7)
-----------------------------------------
-----------------------------------------
-----------------------------------------


Chords by,
tsunvun86

Written by tsunvun86

September 8, 2010 at 2:38 am

%d bloggers like this: