Know Music, Know Life

tsunvun86's Guitar Chords & Tabs

Posts Tagged ‘kagen

SCANDAL – 下弦の月 Kagen no Tsuki (Bass Tabs)

with 3 comments


[04/08/2013] Updated “Bridge”
[04/08/2013] Updated “Chorus” & “Chorus 2”


SCANDAL - Kagen no Tsuki (bass)

Intro:
|-9-9h11----9-----9------|
|-------------11----11---|
|----------------------9-|
|------------------------|

|---------------------------------------------------------------|
|-------4(x4)-2(x4)-1---1----------4(x4)-2(x4)-1---1------------|
|-2-3-4---------------2---4--2-3-4---------------2---4--2-3-4---|
|-------------------------------------------------------------2-|


Verse 1:
|----------------|
|----------2-----|
|-2--2--4----4-0-|
|----------------|

|-------------------------------|
|---------2---------------------|
|-----2-4---2--0-2-2-0-4--4-2-0-|(x2)
|-2-2---------------------------|

|-------------------------------|
|---------2---------------------|
|-----2-4---2--0-2-2-0-4--4-4-4-|
|-2-2---------------------------|


Pre-Chorus 1:
|---------------------------------------------------------|
|---------------------------------------------------------|
|-5--5--5---5-5-8--8--8---8-8-9--9--9---9-9-2--2--2---2-2-|
|---------5-------------9-------------9-------------2-----|

|-------------------------------------------|
|-------------------------------------------|
|-5--4-4--2-----------------------------4-4-|
|---------------5--5-0-5--4--4(x3)-0-4------|


Chorus:
|--------------------------------------------------------------------------------------|
|--------------------------------------------------------------------------------------|
|-------------4-6--6(x7)---6-8-9-8-6------------/14-14(x6)-----------------------------|
|-2--2(x12)-6------------6-----------9-7--7(x5)------------14\9-9--9(x6)-10-10--9--9-9-|

|----------------------------------------------------------------------------------------------|
|----------------------------------------------------------------------------------------------|
|----------6-6---------------------------------------/11-11(x6)---------------5---5--7----7--9-|
|-7--7(x8)-----9-9-7-7-6--6(x8)-9-9-7-7-6-6-4--4(x5)------------11\9-9--9(x6)---5-------7------|


Instrumental:
|-9h11(x3)--9----|
|-------------11-|
|----------------|
|----------------|


Verse 2:
|-------------------------------|
|---------2---------------------|
|-----2-4---2--0-2-2-0-4--4-2-0-|
|-2-2---------------------------|

|--------------|
|---4-2--------|
|-------4--2-0-|(x2)
|-2------------|

|-------------------------------|
|---------2---------------------|
|-----2-4---2--0-2-2-0-4--4-2-0-|
|-2-2---------------------------|

|-------------------------------|
|---------2---------------------|
|-----2-4---2--0-2-2-0-4--4-4-4-|
|-2-2---------------------------|


Pre-Chorus 2:
|--------------------------------------------------------|
|-------------------------------------------------9--9---|
|-5--5--5---5-5-8--8--8---8-8-9--9--9---9-9---6-9------9-|
|---------5-------------9-------------9-----7------------|

|-------------------------------------------|
|-------------------------------------------|
|-5--4-4--2-----------------------------4-4-|
|---------------5--5-0-5--4--4(x3)-0-4------|


repeat Chorus


Bridge:
|------------------------------------------------------------|
|--------4-2h4--------4-2h4------------4(x9)---4-6-7-6-4-----|
|----------------------------------2/4-------4-----------7-5-|
|-2(x13)-------2(x13)-------2(x14)---------------------------|

|----------------------------------------------------|
|----------------------------------------------------|
|-/14-14--14--14--12------12--11--11(x6)-------------|
|---------------------12-----------------9-9--10--12-|


Chorus 2:
|--------------------------------------------------------------------------------------|
|--------------------------------------------------------------------------------------|
|-------------4-6--6(x7)---6-8-9-8-6------------/14-14(x6)-----------------------------|
|-2--2(x12)-6------------6-----------9-7--7(x5)------------14\9-9--9(x6)-10-10--9--9-9-|

|--------------------------------------------------------------|
|--------------------------------------------------------------|
|------------------------------6-6-4-4-3-3-4--4(x8)-/16-16(x4)-|
|-7--7(x14)-6--6(x14)-4--4(x8)---------------------------------|

|--------------------------------------------------------------------------------------|
|--------------------------------------------------------------------------------------|
|----------6-6----------------------------------/11-11(x6)---------------5---5--7----7-|
|-7--7(x8)-----9-9-7-7-6(x10)-9-9-7-7-6-6-4(x7)------------11\9-9--9(x6)---5-------7---|


Outro:
|---------------------------------|
|---------------------------------|
|-----0-----0-----0-----0---7-8-9-|
|-2-4---2-4---2-4---2-4-----------|


Transcribed by,
tsunvun86

Written by tsunvun86

August 3, 2013 at 6:13 pm

%d bloggers like this: