Know Music, Know Life

tsunvun86's Guitar Chords & Tabs

Archive for the ‘Chords & Tabs’ Category

Taeyeon – Set me free (theMUSIC Acoustic Version) [Chords & Tabs]

leave a comment »


Taeyeon - Set me free (theMUSIC Acoustic Version)

#Capo on 2nd fret

Amaj7 - x02224 / 5x665x
A6 - x02222
Emaj9 - 0x4444
Bbm7b5 - 6x665x
G#m7no5 - 4x440x
F#m11no5 - 2x2200
EaddC - 032100
E6 - 042100
F#m11#5 - 2x0200
B11/F# - 2x1200
B9sus4 - x22222

Intro:
 Amaj7                       A6  Emaj9
-4---4---4---4---4---4---4---2------4---4---4---4--------------
-2---2---2---2---2---2---2---2-----4----4---4---4------4-----4-
---2---2---2---2---2---2---2---2--4---4---4---4---4---4----4---
-----------------------------------------------------4---4-----
-0---------------0---------------------------------------------
---------------------------------0------------------0----------

Verse:
 Amaj7                           Emaj9
-4---4---4---4---4---4---4---4------4---4---4---4---------4---
-2---2---2---2---2---2---2---2-----4----4---4---4-------4---4-
---2---2---2---2---2---2---2---2--4---4---4---4---4---4-------
----------------------------------------------------4---------
-0---------------0--------------------------------------------
---------------------------------0------------------0---------

 Amaj7                       A6  Emaj9
-4---4---4---4---4---4---4---2------------4-------4-------4---
-2---2---2---2---2---2---2---2------4---4---4---4-------4-----
---2---2---2---2---2---2---2---2---4--4-------4-------4-------
----------------------------------4-----------------4-------4-
-0---------------0--------------------------------------------
---------------------------------0----------0-------0---------

Pre-Chorus:
 Bbm7b5          Amaj7           G#m7no5                         F#m11no5
---------------------------------------------------------------------------------0--
-------5-------5-------5-------5-------0-------0-------0-------0-0-----0-------0-0--
-----6-------6-------6-------6-------4-------4-------4-------4-------2-------2---2--
---6-------6-------6-------6-------4-------4-------4-------4-------2-------2-----2--
------------------------------------------------------------------------------------
-6-------6-------5-------5-------4-------4-------4-------4-------2-------2-------2--

 E        strum E chord.....
-----------------------------
-------0---------------------
-1---1-----------------------
-2-2-------------------------
-----------------------------
-0---------------------------

Chorus:
E (EaddC E6) F#m11no5 (F#m11#5 B11/F# F#m11#5)
Asus2 Asus2/F# Dsus2 B9sus4
E (EaddC E6) F#m11no5 (F#m11#5 B11/F# F#m11#5)
Asus2 B9sus4
 
Outro:
 Amaj7         Emaj9  
-4---4---4---------4--
-2---2---2-------4----
---2---2---2---4------
----------------------
-0--------------------
--------------0-------

Transcribed by,
tsunvun86/chewie.mushroom
Advertisements

Written by tsunvun86

May 28, 2014 at 11:32 pm

Girls Dead Monster – My Song [Chords]

leave a comment »


 

Girls Dead Monster – My Song

Asus4 – x02230
Asus2 – x02200
Fmaj7 – x33210
G6add4 – 320010
G6 – 320000
Dsus2 – xx0230
Dsus2/F# – 2×0230
Fsus4 – 133311
EmMaj7 – 022030
Emadd2 – 022002
Fmaj13 – 133200
Gadd4 – 320013
Bsus4 – x24400
Cmaj7 – x35500
D6sus2 – x57700

Intro:
Am Asus4 Asus2 Am Asus2
Am Asus4 Em

Verse:
Am Em Am Em
Am G Fmaj7 G6add4 G6
Fmaj7 G6 Fmaj7 G6
Fmaj7 Em Am
G

repeat Verse

Pre-Chorus:
C Dsus2
C Em F G
Am Dsus2
C Em Am Eb

Chorus:
G F Em Dsus2
C Dsus2/F#
G Fsus4 F
G F Em Dsus2
C Dsus2/F#

EmMaj7 Emadd2 Fmaj13 (x2)
G6

Instrumental:
Asus2 F G
A (Asus4 A) F G (Gadd4 G)
A (A Asus2 A Asus4 A Asus2 A) F G (Gadd4 G)
A (Asus4 A) F G (Gadd4 G)
Fmaj13 G6

repeat Verse

repeat Pre-Chorus

repeat Chorus

EmMaj7 Emadd2 Fmaj13 (x3)
G6

Outro:
Asus2 Bsus4 Cmaj7 D6sus2
Fmaj13

Transcribed by,
tsunvun86

Written by tsunvun86

November 19, 2013 at 10:31 pm

東京事変 Tokyo Jihen – キラーチューン Killer Tune [Bass Tabs]

leave a comment »


Tokyo Jihen - Killer Tune (bass)

Tunning: D# G# C# F#

Intro:
|-------------------------------------------------10-11-13--14-----------------|
|---------------------4-5-6-7-------------12---11--------------14-----15-------|
|---------4---------7---------0-7-0-5~5/--------------------------12-----15----|
|-5----4-----2--2/----------------------------------------------------------13-|

|--------------------------|
|-------12----12h14-14-14\-|
|-14-14----14--------------|
|--------------------------|

|--------------------|     |-----------------|
|--------------------|     |-----------------|
|--------------------|(x3) |-----------------| 
|-5-7-5-0-5-7-5-5--0-|     |-5-7-5-0-5-7-5-5-|


Verse 1:
|-----------------------------------------------------------------------|
|-----------4-5-7-6-6---------------------2-4-2---------------------2h4-|
|-0-4-5-6-7-----------6\4---4-4---4---0-4-------4---------2h4-0-2-4-----|
|-------------------------4-----4---2-------------2-0-2-3---------------|

|-----------------------------4-3-2---------------------------------------|
|-0-4-5-6-7-----7---3-6-----3-------2---2-3-----3-----0-2/4-2-2/14-14-14\-|
|-----------0-5---4-----4-2-----------0-----0-2---2-2---------------------|
|-------------------------------------------------------------------------|


Chorus:
|-------------------------------------------------------------------------|
|-------------------------------------------------------------------------|
|-0(x8)-8(x8)-7(x8)-5(x8)-4(x8)-3(x8)-2-2-4-4-5-5-2-2-7-7-9-9-10-10-11-11-|
|-------------------------------------------------------------------------|

|-------------------------------------------------------------------------------|
|-------------------------------------------------------------------------------|
|-0(x8)-4(x8)-7(x8)-6(x4)-5(x4)-4(x8)-3(x8)-2-2-4-4-5-5-2-2-7-7-9-9-10-10-11-11-|
|-------------------------------------------------------------------------------|


Instrumental:
|--------------------------------------------------------14--------------|
|-------------------10---------------------------------------------------|
|-/12-10-12-8-10-12----/10-12--------/12-10-12-8-10-12/14---/10-12-------|
|------------------------------8--6---------------------------------8--6-|

|----------------------------------------------------------------------|
|-------------------------------------------------------------8/10--8~-|
|-/12-10-12-8-10-12--/10-12--------/12-10-12-8-10-12--/10-12-----------|
|----------------------------8--6--------------------------------------|

|-\14-| |--------------------|
|-----| |--------------------|
|-----| |--------------------|(x4)
|-----| |-5-7-5-0-5-7-5-5--0-|


Verse 2:
|-----------------------19-----18-----18-11------------10--11--13--14-----------------|
|------------4--4/17-17----17-----17---------\12--/11-----------------14-----15-------|
|---------4--------------------------------------------------------------12-----15----|
|-5----4---------------------------------------------------------------------------13-|

|-------------------------|
|-------12----14-14-------|
|-14-14----14-------14----|
|----------------------12-|

|----------------------------------------------------------------------|
|-----------4-5-7-6-6---------------4-2-----------2/4-2-2-0---------2/-|
|-0-4-5-6-7-----------6\4---4-4---4-----4-----0-4-----------2-0-2-4----|
|-------------------------4-----4---------0-2--------------------------|

|--------------------------------4-3-2-----------------------------------------|
|-0-14-15-16~--0-0-0-----6-----3-------2---2-3-----0-----0-2/4-2-2/14-14-14-14-|
|--------------------4-4---4-2-----------0-----0-2---2-2-----------------------|
|------------------------------------------------------------------------------|


repeat Chorus


Outro:
|------------------------------------------13--14--------|
|--------------------------14------12--11----------------|
|-12---14---16--4--5---12------14--------------------\12-|
|--------------------------------------------------------|

|--------------------|     |----------------------------|
|--------------------|     |----------------------------|
|--------------------|(x7) |---------/12--12-12--12-12--| 
|-5-7-5-0-5-7-5-5--0-|     |-5-7-5-0--------------------|

|---------------------------------------------------------------------------------------------------|
|-------------------------------------------11----11---11----11--11-11---12----12---12----12--12-12-|
|----------------------------------------------11---------11----------------12---------12-----------| (x2)
|-5-7-5---5-7-5--5-5---7-9-7---7-9-7--7-7-----------------------------------------------------------|

|-----------------------|
|-----------------------|
|-0-----/12---10h12(x3)-|
|-----------------------|


Transcribed by,
tsunvun86

Written by tsunvun86

August 11, 2013 at 4:51 pm

SCANDAL – 下弦の月 Kagen no Tsuki (Bass Tabs)

with 3 comments


[04/08/2013] Updated “Bridge”
[04/08/2013] Updated “Chorus” & “Chorus 2”


SCANDAL - Kagen no Tsuki (bass)

Intro:
|-9-9h11----9-----9------|
|-------------11----11---|
|----------------------9-|
|------------------------|

|---------------------------------------------------------------|
|-------4(x4)-2(x4)-1---1----------4(x4)-2(x4)-1---1------------|
|-2-3-4---------------2---4--2-3-4---------------2---4--2-3-4---|
|-------------------------------------------------------------2-|


Verse 1:
|----------------|
|----------2-----|
|-2--2--4----4-0-|
|----------------|

|-------------------------------|
|---------2---------------------|
|-----2-4---2--0-2-2-0-4--4-2-0-|(x2)
|-2-2---------------------------|

|-------------------------------|
|---------2---------------------|
|-----2-4---2--0-2-2-0-4--4-4-4-|
|-2-2---------------------------|


Pre-Chorus 1:
|---------------------------------------------------------|
|---------------------------------------------------------|
|-5--5--5---5-5-8--8--8---8-8-9--9--9---9-9-2--2--2---2-2-|
|---------5-------------9-------------9-------------2-----|

|-------------------------------------------|
|-------------------------------------------|
|-5--4-4--2-----------------------------4-4-|
|---------------5--5-0-5--4--4(x3)-0-4------|


Chorus:
|--------------------------------------------------------------------------------------|
|--------------------------------------------------------------------------------------|
|-------------4-6--6(x7)---6-8-9-8-6------------/14-14(x6)-----------------------------|
|-2--2(x12)-6------------6-----------9-7--7(x5)------------14\9-9--9(x6)-10-10--9--9-9-|

|----------------------------------------------------------------------------------------------|
|----------------------------------------------------------------------------------------------|
|----------6-6---------------------------------------/11-11(x6)---------------5---5--7----7--9-|
|-7--7(x8)-----9-9-7-7-6--6(x8)-9-9-7-7-6-6-4--4(x5)------------11\9-9--9(x6)---5-------7------|


Instrumental:
|-9h11(x3)--9----|
|-------------11-|
|----------------|
|----------------|


Verse 2:
|-------------------------------|
|---------2---------------------|
|-----2-4---2--0-2-2-0-4--4-2-0-|
|-2-2---------------------------|

|--------------|
|---4-2--------|
|-------4--2-0-|(x2)
|-2------------|

|-------------------------------|
|---------2---------------------|
|-----2-4---2--0-2-2-0-4--4-2-0-|
|-2-2---------------------------|

|-------------------------------|
|---------2---------------------|
|-----2-4---2--0-2-2-0-4--4-4-4-|
|-2-2---------------------------|


Pre-Chorus 2:
|--------------------------------------------------------|
|-------------------------------------------------9--9---|
|-5--5--5---5-5-8--8--8---8-8-9--9--9---9-9---6-9------9-|
|---------5-------------9-------------9-----7------------|

|-------------------------------------------|
|-------------------------------------------|
|-5--4-4--2-----------------------------4-4-|
|---------------5--5-0-5--4--4(x3)-0-4------|


repeat Chorus


Bridge:
|------------------------------------------------------------|
|--------4-2h4--------4-2h4------------4(x9)---4-6-7-6-4-----|
|----------------------------------2/4-------4-----------7-5-|
|-2(x13)-------2(x13)-------2(x14)---------------------------|

|----------------------------------------------------|
|----------------------------------------------------|
|-/14-14--14--14--12------12--11--11(x6)-------------|
|---------------------12-----------------9-9--10--12-|


Chorus 2:
|--------------------------------------------------------------------------------------|
|--------------------------------------------------------------------------------------|
|-------------4-6--6(x7)---6-8-9-8-6------------/14-14(x6)-----------------------------|
|-2--2(x12)-6------------6-----------9-7--7(x5)------------14\9-9--9(x6)-10-10--9--9-9-|

|--------------------------------------------------------------|
|--------------------------------------------------------------|
|------------------------------6-6-4-4-3-3-4--4(x8)-/16-16(x4)-|
|-7--7(x14)-6--6(x14)-4--4(x8)---------------------------------|

|--------------------------------------------------------------------------------------|
|--------------------------------------------------------------------------------------|
|----------6-6----------------------------------/11-11(x6)---------------5---5--7----7-|
|-7--7(x8)-----9-9-7-7-6(x10)-9-9-7-7-6-6-4(x7)------------11\9-9--9(x6)---5-------7---|


Outro:
|---------------------------------|
|---------------------------------|
|-----0-----0-----0-----0---7-8-9-|
|-2-4---2-4---2-4---2-4-----------|


Transcribed by,
tsunvun86

Written by tsunvun86

August 3, 2013 at 6:13 pm

FLOWER FLOWER – コーヒー Coffee (Guitar Chords)

leave a comment »


FLOWER FLOWER - Coffee

**Capo at 1st fret

Intro:
Dsus2 Asus2 E F#m (x8)

Verse:
Dsus2 Asus2 E F#m (x4)

Instrumental:
Dsus2 Asus2 E F#m (x2)

repeat Verse

Pre-Chorus:
E F#m Dsus2 Asus2
E F#m Dsus2 E
E

Chorus:
Dsus2 Asus2 E F#m (x3)

Instrumental 2:
Dsus2 Asus2 E F#m (x4)

repeat Verse (x2)

repeat Pre-Chorus

Chorus 2:
Dsus2 Asus2 E F#m (x6)

Outro:
Dsus2 Asus2 E F#m (x4)


Transcribed by,
tsunvun86

Written by tsunvun86

April 3, 2013 at 8:07 pm

FLOWER FLOWER – 愛の歌 Ai no Uta (Guitar Chords & Tabs)

with one comment



FLOWER FLOWER - 愛の歌 Ai no Uta

**Capo at 2nd fret

Intro:
Dsus2 E Asus2 (x2)
Dsus2 E C#m F#m
Dsus2 E Asus2 Asus2 Asus2 Asus2

Verse:
Dsus2 E C#m F#m )
Dsus2 E Asus2   } (x4)

Pre-Chorus:
C#m F#m
Bm E
C#m F#m
Bm Bm E E

Chorus:
Dsus2 E Asus2
Bm E Asus2
Dsus2 E C#m F#m
Dsus2 E Asus2
Asus2

Instrumental:
Dsus2 E Asus2
Bm E Asus2
Dsus2 E C#m F#m
Dsus2 E Asus2
Asus2 (x2)

repeat Verse

repeat Pre-Chorus

repeat Chorus (x2)

Bridge:
F#m E
Dsus2 Asus2
F#m E
Dsus2 (E x8)

repeat Chorus

Chorus 2:
Dsus2 E Asus2
Bm C#7 F#m
Dsus2 E C#m F#m
Dsus2 E Asus2
Asus2 (x3)

Outro:
Dsus2 E Asus2
Bm E Asus2
Dsus2 E C#m F#m
Dsus2 E Asus2
Asus2 (x8)
-----------------------------------------------------------------------------------------

Intro:
 Dsus2 E     Asus2       Dsus2 E     Asus2       Dsus2 E     C#m   F#m
-------------------------------------------------------------------------
-3---0-------------0-----3---0-------------0-----3---0-------5-----2-----
---2-------1-----2---2-----2-------1-----2---2-----2-------0-6-----2-----
-0-------2---2-2-------0-0-------2---2-2-------0-0-------2-----6-5---4-5-
-------------0-----------------------0-----------------------4-----------
-------0-----------------------0-----------------------0-----------2-----

 Dsus2 E     Asus2       Asus2       Asus2       Asus2
-------------------------------------------0-----0--
-3---0-------------0-----------0-----0---0---0---0--
---2-------1-----2---2-------2---2-----2-------2-2--
-0-------2-----2-------2---2-------2-------------2--
-------------0-----------0-----------0-----------0--
-------0--------------------------------------------

Verse:
 Dsus2 E     C#m   F#m    Dsus2 E     Asus2
--------------------------------------------------
-3---0-------5-----2------3---0-------------0-----
---2-------0-6-----2--------2-------1-2---2---2--- (x4)
-0-------2-----6-5---4-5--0-------2-----2-------0-
-------------4------------------------0-----------
-------0-----------2------------0-----------------

Pre-Chorus
 C#m         F#m         Bm          E           C#m         F#m
--------------------------------------------------------------------------
-5-----5-----2-----2-----3-----3-----0-----0-----5-----5-----2-----2------
-6---6---6---2---2---2---4---4---4---1---1---1---6---6---6---2---2---2----
---6-------6---4-------4---4-------4---2-------0---6-------6---4-------4--
-4-----------------------2-----------------------4------------------------
-------------2-----------------------0-----------------------2------------

 Bm         Bm          E           E
------------------------------------0-
-3-----3----3-----3-----0-----0-----0-
-4---4----4-----4---4---1---1---1---1-
---4----------4-------4---2-------2-2-
-2----------2-----------------------2-
------------------------0-----------0-

Chorus:
 Dsus2 E     Asus2       Bm    E     Asus2       Dsus2 E     C#m   F#m
-------------------------------------------------------------------------
-3---0-------------0-----3-----------------0-----3---0-------5-----2-----
---2-------1-2---2---2---4---4-----1-2---2---2-----2-------0-6-----2-----
-0-------2-----2-------0---4-----2-----2-------0-0-------2-----6-5---4-5-
-------------0-----------2-----------0-----------------------4-----------
-------0-----------------------0-----------------------0-----------2-----

 Dsus2 E     Asus2       Asus2
-------------------------0-----
-3---0-------------0-----0-----
---2-------1-2---2---2---2-----
-0-------2-----2-------2-2-----
-------------0-----------0-----
-------0-----------------------

Instrumental:
 Dsus2 E     Asus2       Bm    E     Asus2       Dsus2 E     C#m   F#m
-------------------------------------------------------------------------
-3---0-------------0-----3-----------------0-----3---0-------5-----2-----
---2-------1-2---2---2---4---4-----1-2---2---2-----2-------0-6-----2-----
-0-------2-----2-------0---4-----2-----2-------0-0-------2-----6-5---4-5-
-------------0-----------2-----------0-----------------------4-----------
-------0-----------------------0-----------------------0-----------2-----

 Dsus2 E     Asus2       Asus2       Asus2       Asus2
-------------------------------------0-----0-----0--
-3---0-------------0-----------0---------0---0---0--
---2-------1-----2---2-------2---2-----2-------2-2--
-0-------2-----2-------2---2-------2-------------2--
-------------0-----------0-----------0-----------0--
-------0--------------------------------------------

repeat Verse

repeat Pre-Chorus

repeat Chorus (x2)

Bridge:
F#m E
Dsus2 Asus2
F#m E
Dsus2 (E x8)

repeat Chorus

Chorus 2:
Dsus2 E Asus2
Bm C#7 F#m
Dsus2 E C#m F#m
Dsus2 E Asus2
Asus2 (x3)

Outro:
Dsus2 E Asus2
Bm E Asus2
Dsus2 E C#m F#m
Dsus2 E Asus2
Asus2 (x8)


#############################################################################################

**Without capo

Intro:
Esus2 F# Bsus2 (x2)
Esus2 F# Ebm G#m
Esus2 F# Bsus2 Bsus2 Bsus2 Bsus2

Verse:
Esus2 F# Ebm G#m )
Esus2 F# Bsus2   } (x4)

Pre-Chorus:
Ebm G#m
C#m F#
Ebm G#m
C#m C#m F# F#

Chorus:
Esus2 F# Bsus2
C#m F# Bsus2
Esus2 F# Ebm G#m
Esus2 F# Bsus2
Bsus2

Instrumental:
Esus2 F# Bsus2
C#m F# Bsus2
Esus2 F# Ebm G#m
Esus2 F# Bsus2
Bsus2 (x2)

repeat Verse

repeat Pre-Chorus

repeat Chorus (x2)

Bridge:
G#m F#
Esus2 Bsus2
G#m F#
Esus2 (F# x8)

repeat Chorus

Chorus 2:
Esus2 F# Bsus2
C#m Eb7 G#m
Esus2 F# Ebm G#m
Esus2 F# Bsus2
Bsus2 (x3)

Outro:
Esus2 F# Bsus2
C#m F# Bsus2
Esus2 F# Ebm G#m
Esus2 F# Bsus2
Bsus2 (x8)


Transcribed by,
tsunvun86

Written by tsunvun86

April 3, 2013 at 7:44 pm

FLOWER FLOWER – 宝物 Takaramono (Guitar Tabs)

leave a comment »


The audio above is a COVER of an original song made by FLOWER FLOWER.
It was never our intention to plagiarize YUI’s song or damage in any way her current works. We just decided we wanted to do a tribute of this song, because of its beautiful melody and meaningful lyrics. We certainly hope they will release this song officially in the future and we beg you to support YUI’s new stage by purchasing her music when the time comes.

Vocal: **
Guitar: tsunvun86 (Oz)
Keyboard: pmmonkey (Malaysia)
Bass: Jun (Philippines)
Mix and programming: Kikino! (Chile)

FLOWER FLOWER - Takaramono

Dsus2 - xx0230
Bm7 - x24232
Bm7/A - x04232
F#7 - 242322
s - slap strings

Intro:
 Dsus2       s  G     Dsus2    Bm7   Bm7/A s  G     Dsus2
---0---------x-------------------0---------x---------------------
-3---3-3--3--x--3-----3----3---3---3-3--3--x--3-----3------------
-2-----2--2--x----0-2-2----2---2-----2--2--x----0-2-2-----2------ (x2)
-0-----2--2--x--------0--4-----------------x--------0---4---4----
-------------x-------------4---2-----0--0--x---------------------
-------------x--3--------------------------x--3------------------

Verse:
 Dsus2       s  G     Dsus2    Bm7   Bm7/A s  G     Dsus2
---0---------x-------------------0---------x---------------------
-3---3-3--3--x--3-----3----3---3---3-3--3--x--3-----3------------
-2-----2--2--x----0-2-2----2---2-----2--2--x----0-2-2-----2------ (x2)
-0-----2--2--x--------0--4-----------------x--------0---4---4----
-------------x-------------4---2-----0--0--x---------------------
-------------x--3--------------------------x--3------------------

Instrumental:
 Dsus2       s  G     Dsus2    Bm7   Bm7/A s  G     Dsus2
---0---------x-------------------0---------x---------------------
-3---3-3--3--x--3-----3----3---3---3-3--3--x--3-----3------------
-2-----2--2--x----0-2-2----2---2-----2--2--x----0-2-2-----2------
-0-----2--2--x--------0--4-----------------x--------0---4---4----
-------------x-------------4---2-----0--0--x---------------------
-------------x--3--------------------------x--3------------------

Pre-Chorus:
 Bm7            Bm7/A          G              G
---------------------------------------------------------------
-3-----3--------3-----3--------3-----3--------3-----3----------
-2---2------2---2---2------2---4---4------4---4---4------4-----
---4------4---4---4------4---4---5------5---5---5------5---5---
-2--------------0----------------------------------------------
-------------------------------3--------------3----------------

 Bm7            Bm7/A          G              A
---------------------------------------------------------------
-3-----3--------3-----3--------3-----3-------------------------
-2---2------2---2---2------2---4---4------4---6-----6----------
---4------4---4---4------4---4---5------5---5-7---7------7-----
-2--------------0-------------------------------7------7---7---
-------------------------------3--------------5----------------

Chorus:
 D              F#7            Bm7            Bm7/A          G              A
-------------------------------------------------------------------------------------------
-3-----3--------2-----2--------3-----3--------3-----3--------3-----3-----------------------
-2---2------2---3---3------3---2---2------2---2---2------2---4---4------4---6-----6-------- (x2)
---4------4---4---2------2---2---4------4---4---4------4---4---5------5---5-7---7------7---
-5-----------------------------2--------------0-------------------------------7------7---7-
----------------2--------------------------------------------3--------------5--------------

repeat Instrumental

repeat Verse

repeat Pre-Chorus

repeat Chorus (x2)

Outro:
 D              F#7            Bm7            Bm7/A          G              A
-------------------------------------------------------------------------------------------
-3-----3--------2-----2--------3-----3--------3-----3--------3-----3-----------------------
-2---2------2---3---3------3---2---2------2---2---2------2---4---4------4---6-----6--------
---4------4---4---2------2---2---4------4---4---4------4---4---5------5---5-7---7------7---
-5-----------------------------2--------------0-------------------------------7------7---7-
----------------2--------------------------------------------3--------------5--------------

 G              Gm                 D
-------------------------3---------2---2h5p2----------
-3-----3--------3-----3-----3------3---------3--------
-4---4------4---3---3----------3---2-----------2------
---5------5---5---5----------------0-------------4----
---------------------------------------------------5--
-3--------------3-------------------------------------

Transcribed by,
tsunvun86

Written by tsunvun86

April 3, 2013 at 7:21 pm

%d bloggers like this: