Know Music, Know Life

tsunvun86's Guitar Chords & Tabs

Posts Tagged ‘cover

SCANDAL – 下弦の月 Kagen no Tsuki (Bass Tabs)

with 3 comments


[04/08/2013] Updated “Bridge”
[04/08/2013] Updated “Chorus” & “Chorus 2”


SCANDAL - Kagen no Tsuki (bass)

Intro:
|-9-9h11----9-----9------|
|-------------11----11---|
|----------------------9-|
|------------------------|

|---------------------------------------------------------------|
|-------4(x4)-2(x4)-1---1----------4(x4)-2(x4)-1---1------------|
|-2-3-4---------------2---4--2-3-4---------------2---4--2-3-4---|
|-------------------------------------------------------------2-|


Verse 1:
|----------------|
|----------2-----|
|-2--2--4----4-0-|
|----------------|

|-------------------------------|
|---------2---------------------|
|-----2-4---2--0-2-2-0-4--4-2-0-|(x2)
|-2-2---------------------------|

|-------------------------------|
|---------2---------------------|
|-----2-4---2--0-2-2-0-4--4-4-4-|
|-2-2---------------------------|


Pre-Chorus 1:
|---------------------------------------------------------|
|---------------------------------------------------------|
|-5--5--5---5-5-8--8--8---8-8-9--9--9---9-9-2--2--2---2-2-|
|---------5-------------9-------------9-------------2-----|

|-------------------------------------------|
|-------------------------------------------|
|-5--4-4--2-----------------------------4-4-|
|---------------5--5-0-5--4--4(x3)-0-4------|


Chorus:
|--------------------------------------------------------------------------------------|
|--------------------------------------------------------------------------------------|
|-------------4-6--6(x7)---6-8-9-8-6------------/14-14(x6)-----------------------------|
|-2--2(x12)-6------------6-----------9-7--7(x5)------------14\9-9--9(x6)-10-10--9--9-9-|

|----------------------------------------------------------------------------------------------|
|----------------------------------------------------------------------------------------------|
|----------6-6---------------------------------------/11-11(x6)---------------5---5--7----7--9-|
|-7--7(x8)-----9-9-7-7-6--6(x8)-9-9-7-7-6-6-4--4(x5)------------11\9-9--9(x6)---5-------7------|


Instrumental:
|-9h11(x3)--9----|
|-------------11-|
|----------------|
|----------------|


Verse 2:
|-------------------------------|
|---------2---------------------|
|-----2-4---2--0-2-2-0-4--4-2-0-|
|-2-2---------------------------|

|--------------|
|---4-2--------|
|-------4--2-0-|(x2)
|-2------------|

|-------------------------------|
|---------2---------------------|
|-----2-4---2--0-2-2-0-4--4-2-0-|
|-2-2---------------------------|

|-------------------------------|
|---------2---------------------|
|-----2-4---2--0-2-2-0-4--4-4-4-|
|-2-2---------------------------|


Pre-Chorus 2:
|--------------------------------------------------------|
|-------------------------------------------------9--9---|
|-5--5--5---5-5-8--8--8---8-8-9--9--9---9-9---6-9------9-|
|---------5-------------9-------------9-----7------------|

|-------------------------------------------|
|-------------------------------------------|
|-5--4-4--2-----------------------------4-4-|
|---------------5--5-0-5--4--4(x3)-0-4------|


repeat Chorus


Bridge:
|------------------------------------------------------------|
|--------4-2h4--------4-2h4------------4(x9)---4-6-7-6-4-----|
|----------------------------------2/4-------4-----------7-5-|
|-2(x13)-------2(x13)-------2(x14)---------------------------|

|----------------------------------------------------|
|----------------------------------------------------|
|-/14-14--14--14--12------12--11--11(x6)-------------|
|---------------------12-----------------9-9--10--12-|


Chorus 2:
|--------------------------------------------------------------------------------------|
|--------------------------------------------------------------------------------------|
|-------------4-6--6(x7)---6-8-9-8-6------------/14-14(x6)-----------------------------|
|-2--2(x12)-6------------6-----------9-7--7(x5)------------14\9-9--9(x6)-10-10--9--9-9-|

|--------------------------------------------------------------|
|--------------------------------------------------------------|
|------------------------------6-6-4-4-3-3-4--4(x8)-/16-16(x4)-|
|-7--7(x14)-6--6(x14)-4--4(x8)---------------------------------|

|--------------------------------------------------------------------------------------|
|--------------------------------------------------------------------------------------|
|----------6-6----------------------------------/11-11(x6)---------------5---5--7----7-|
|-7--7(x8)-----9-9-7-7-6(x10)-9-9-7-7-6-6-4(x7)------------11\9-9--9(x6)---5-------7---|


Outro:
|---------------------------------|
|---------------------------------|
|-----0-----0-----0-----0---7-8-9-|
|-2-4---2-4---2-4---2-4-----------|


Transcribed by,
tsunvun86

Advertisements

Written by tsunvun86

August 3, 2013 at 6:13 pm

So, I picked up the electric guitar again recently :D

leave a comment »


Written by tsunvun86

April 13, 2013 at 8:45 pm

Posted in Guitar Cover

Tagged with , , , , , , , ,

SCANDAL – BURN [Chords & Tabs]

with 2 comments


 
SCANDAL - BURN


Intro:
Bb C Dm C 
Bb C Dm (x3)

Verse:
Bb C (x2)
Bb Dm
Bb Am
Dm C

Chorus:
Bb C Dm (x3)
Am
Bb C Dm (x3)
Bb C

Instrumental:
Bb C Dm C

Verse 2:
Bb C
Bb Dm
Bb Am
Dm C

repeat Chorus

Solo:
Bb C Dm (x2)
Bb C Am Dm
Bb C

repeat Chorus

Outro:
Bb Eb C# F# G#
Bb Eb C# F# F
Bb Eb C# F# G# (x3)
Bb Eb C# F#
Bb



Intro:
----------------------------------5--x-5-x-x-5-x-x-3--
----------------------------------6--x-6-x-x-6-x-x-5--
-------3--x-3-x-x-5-x-x-----------7--x-7-x-x-7-x-x-5--
-------3--x-3-x-x-5-x-x-3h5-----5-7--x-7-x-x-7-x-x-5--  (x2)
-1-3/5-1--x-1-x-x-3-x-x-----3/5---5--x-5-x-x-5-x-x-3--
------------------------------------------------------

-8--6-5-6-5----------------8--6-5-6-5-----------------
-10-8-6-8-6--6-5--6/8--6---10-8-6-8-6--6-5--6/8--8/10-
-------------7-5--7/9--7---------------7-5--7/9--9/10-
------------------------------------------------------
------------------------------------------------------
------------------------------------------------------

Solo:
-----------------------------------------------------------------------------------
-----------/13--13--11-10------------------------10--------------------------------
-/7-9-10-7----------------12--12b14-12-10-----10----10/12--12--12-10-9-9--9b109-7--
-------------------------------------------12--------------------------------------
-----------------------------------------------------------------------------------
-----------------------------------------------------------------------------------

-----------------------------------------------10------10------10--------12-----12-
-------8/10-8----------8-10b11--10-8-----------------------------------------------
-----7---------------9---------------10h12-10------10------10------10/12-----12----
-7-8------------8-10---------------------------------------------------------------
-----------------------------------------------------------------------------------
-----------------------------------------------------------------------------------

----12-----12-----12-------20-----20-----20----------------------------------------
-----------------------/17-----17-----17-------------------------------------------
-12-----12-----12------------------------------------------------------------------
-----------------------------------------------------------------------------------
-----------------------------------------------------------------------------------
-----------------------------------------------------------------------------------



Transcribed by,
tsunvun86

Written by tsunvun86

August 20, 2011 at 1:48 am

ONE OK ROCK – Re:make [test cover]

with 2 comments


Just 3 different sites. Youtube upload is blocked for certain countries.

ONE OK ROCK – Re:make [test cover] from tsunvun86 on Vimeo.

Written by tsunvun86

July 17, 2011 at 9:45 pm

Posted in Guitar Cover, ONE OK ROCK

Tagged with , , , , , , , ,

SCANDAL – LOVE SURVIVE [Chords & Tabs]

with 6 comments


SCANDAL - LOVE SURVIVE

Intro:
F G Em Am  )
F G Am     } (x2)

Verse:
F F Em Am (x2)

Pre-Chorus:
Dm Em Am (x2)
Bb Am Dm E

Chorus:
F G Em Am )
Dm G Am   } (x2)
Dm G

Instrumental:
F G Em Am
F G Am

repeat Verse

Pre-Chorus 2:
Dm Em Am
Bb Am Dm E

Chorus 2:
F G Em Am
Dm G Am
Dm G

Bridge:
F G Em Am
F G Am
F G Em Am
Dm G

Instrumental 2:
Am Bb
Am F Em
Am Bb
Am C Dm
Am Bb
Am F Em
Am Bb
Em F F# G G# Am

Chorus 3:
F G Em Am )
Dm G Am   } (x3)
Dm Dm Dm G


Outro:
F G Em Am
F G Am


Intro/Instrumental/Outro Riff:
-/12-12-12-12-13-13-13-15--15-15--10-10-10-7-7-7--8-7--5----------
----------------------------------------------------------5-------
-/9--9--9--9--10-10-10-12--12-12--7--7--7--4-4-4--5-4--2----------
----------------------------------------------------------2-------
------------------------------------------------------------------
------------------------------------------------------------------

-12-12-12-13-13-13-15--15-15--8-8-8-7-7-7-7-8--7-7-7-8----8-7-----
--------------------------------------------------------------8---
-9--9--9--10-10-10-12--12-12--5-5-5-4-4-4-4-5--4-4-4-5----------7-
------------------------------------------------------------------
------------------------------------------------------------------
------------------------------------------------------------------
(Instrumental & Outro starts here)
-12-12-12-13-13-13-15--15-15--10-10-10-7-7-7--8-7--5--------------
------------------------------------------------------5-----------
-9--9--9--10-10-10-12--12-12--7--7--7--4-4-4--5-4--2--------------
------------------------------------------------------2-----------
------------------------------------------------------------------
------------------------------------------------------------------

-12-12-12-13-13-13-15-15-15/19-19-19-19-17-17-17-17-17-17-17-17--17-17-17-17-17-17-
-----------------------------------------------------------------------------------
-9--9--9--10-10-10-12-12-12/16-16-16-16-14-14-14-14-14-14-14-14--14-14-14-14-14-14-
-----------------------------------------------------------------------------------
-----------------------------------------------------------------------------------
-----------------------------------------------------------------------------------


Instrumental 2:
------------------------------------------------------------------
------------------------------------------------------------------
------------------------------------------------------------------
-5/7--7-7--5--7--7-8-8-8--5/7--7-7--3--3--3-3-2-2-----------------
-5/7--7-7--5--7--7-8-8-8--5/7--7-7--3--3--3-3-2-2-----------------
-3/5--5-5--3--5--5-6-6-6--3/5--5-5--1--1--1-1-0-0-----------------

------------------------------------------------------------------
------------------------------------------------------------------
------------------------------------5--5--5--7--------------------
-5/7--7-7--5--7--7-8-8-8--5/7--7-7--5--5--5--7--------------------
-5/7--7-7--5--7--7-8-8-8--5/7--7-7--3--3--3--5--------------------
-3/5--5-5--3--5--5-6-6-6--3/5--5-5--------------------------------

------------------------------------------------------------------
------------------------------------------------------------------
------------------------------------------------------------------
-5/7--7-7--5--7--7-8-8-8--5/7--7-7--3--3--3-3-2-2-----------------
-5/7--7-7--5--7--7-8-8-8--5/7--7-7--3--3--3-3-2-2-----------------
-3/5--5-5--3--5--5-6-6-6--3/5--5-5--1--1--1-1-0-0-----------------

------------------------------------------------------------------
------------------------------------------------------------------
------------------------------------------------------------------
-5/7--7-7--5--7--7-8-8-8---2--3--4--5--6-7------------------------
-5/7--7-7--5--7--7-8-8-8---2--3--4--5--6-7------------------------
-3/5--5-5--3--5--5-6-6-6---0--1--2--3--4-5------------------------



Transcribed by,
tsunvun86 @ SCANDAL HEAVEN

Written by tsunvun86

June 20, 2011 at 11:49 am

SCANDAL – CUTE! [Chords & Tabs]

with 2 comments


SCANDAL - CUTE

C#/F - 143121 OR 14xxxx(POWER)
Bb/D - X5333X OR 58xxxx(POWER)
t - tapping
alt.pick - alternate picking


Intro:
Eb (x3) )
G#      } (x2)
C#

Verse:
Eb G Cm Bbm Eb )
G# G#m Gm Cm   } (x2)
Fm G# Eb       )

Pre-Chorus:
B Eb
B
Bb B C#

Chorus:
F# C#/F Ebm B
Bbm Bb/D Ebm
G#m C#
F# C#/F Ebm B
Bbm Bb/D Ebm E
G#m C#

Instrumental:
Eb (x3)
G#
Eb (x3)
G# C#

Verse:
Eb G Cm Bbm Eb
G# G#m Gm Cm
Fm G# Eb

repeat Pre-Chorus

repeat Chorus

Solo:
B Eb
B
Bb B C#

Chorus 2:
F# C#/F Ebm B )
Bbm Bb/D Ebm  } (x2)  
G#m C#        )
F# C#/F Ebm C# B
Bbm Bb/D Ebm E
G#m Bbm B C#

Outro:
Eb (x3) )
G#      } (x4)
Eb



Intro:
-----------------------------------------------------      ---
-----------------------------------------------------      ---
-8--8--8-8--8--8--8-8-8-8-8-8--8--8-8----------------      -6-
-8--8--8-8--8--8--8-8-8-8-8-8--8--8-8--6--6--6------- (x2) -6-
-6--6--6-6--6--6--6-6-6-6-6-6--6--6-6--6--6--6-3-4-3-      -4-
---------------------------------------4--4--4-------      ---


Verse:
 Eb      G       Cm     Bbm     Eb       G#      G#m     Gm
---     ---     ---     ---     ---     ---     ----    ---
---     ---     -4-     ---     -4-     ---     -4-     -3-
-8-(x8) -4-(x8) -5-(x8) -6-(x4) -6-(x4) -5-(x4) -4-(x4) -3-(x4)
-8-     -5-     -5-     -8-     ---     -6-     -6-     -5-
---     ---     ---     ---     ---     ---     ---     ---
---     ---     ---     ---     ---     ---     ---     ---

 Cm      Fm       alt.pick
---     ----     --------------------------------------------
-4-     ----     ---------------8-9-8--------8-9-8-----------
-5-(x4) -10-(x4) ------------8---------8--8------------------
-5-     -10-     -------6--6----5-6-5--------5-6-5-----------
---     ----     -------6--6-6---------6--6------------------
---     ----     -15\6--4--4---------------------------------

-------------------------------------------------------------
-11-9-8-----------------6----------16\15-15\13-13\11-11--10--
--------10-8-7--------7----8-10-8----------------------------
-----------------9--9--------------13\12-12\10-10\8--8---8---
-------------------------------------------------------------
-------------------------------------------------------------
                                         alt.pick
------------------------------7--8---------------------------
-------------------------------------9-----------------8-9-8-
-10--8--6--5------------------4--5---10-------------8--------
--------------6-8-9--6-6-6-5---------10--------6--6----5-6-5-
-8---6--4--3-----------------------------------6--6-6--------
-----------------------------------------15\6--4--4----------

-11--11--9\8--8\6--6---
-----------------------
-8---8---6\5--5\3--3---
-----------------------
-----------------------
-----------------------


Pre-Chorus:
----------------------------------------------------
----------------------------------------------------
---------4/8-8--8b10b8------------------------------
-------4----------------------4/9-9---3--3-3-3-3----
-2/6-6------------------2/6-6---------1--1-1-1-1----
----------------------------------------------------

----------------------------------------------------
----------------------------------------------------
----------------------------------------------------
-----4--4-4-4-4-----6-------------------------------
---1-2--2-2-2-2-1-2-4-------------------------------
-4--------------------------------------------------


Instrumental:
-----------------------------------------------------
-----------------------------------------------------
-8--8--8-8--8--8--8-8-8-8-8-8--8--8-8----------------
-8--8--8-8--8--8--8-8-8-8-8-8--8--8-8--6--6--6------- (x2)
-6--6--6-6--6--6--6-6-6-6-6-6--6--6-6--6--6--6-3-4-3-
---------------------------------------4--4--4-------


Verse 2:
 Eb                               G
-----11----11----13----11----11-------10----10-----13-13-13-13-
---11--11----11----11----11----11---12--12----12---------------
-12------12----12----12----12-----10------10----10-10-10-10-10-
---------------------------------------------------------------
---------------------------------------------------------------
---------------------------------------------------------------

---------------------------------------------------------------
-8---11-11--11--11--11--11--11--11--11--11---------------------
-8---8--8---8---8---8---8---8---8---8-------10--8--6--5--------
-10-------------------------------------8----------------6-8-9-
--------------------------------------------8---6--4--3--------
---------------------------------------------------------------
                     alt.pick
----------7--8----------------------------11--11--9\8--8\6--6--
-----------------9-----------------8-9-8-----------------------
----------4--5---10-------------8---------8---8---6\5--5\3--3--
-6-6-6-5---------10--------6--6----5-6-5-----------------------
---------------------------6--6-6------------------------------
---------------------15\6--4--4--------------------------------


Solo:
Guitar 1
-------------------------------------------------------
-------------------------------------------------------
-------4/8-8/12-12--12b13b12---------4/8-8-------------
-1/4-4-------------------------1/4-4-------------------
-------------------------------------------------------
-------------------------------------------------------

-------------------------------------------------------
-t11p6(repeat)---t12p7(repeat)---t14p9(repeat)---------
-------------------------------------------------------
-------------------------------------------------------
-------------------------------------------------------
-------------------------------------------------------

Guitar 2
-------------------------------------------------------
-------------------------------------------------------
---------4/8-8--8b10b8---------------------------------
-------4-----------------------4/9-9-------------------
-2/6-6-------------------2/6-6-------------------------
-------------------------------------------------------


Outro:
-----------------------------------------------------      ---
-----------------------------------------------------      ---
-8--8--8-8--8--8--8-8-8-8-8-8--8--8-8----------------      -8-
-8--8--8-8--8--8--8-8-8-8-8-8--8--8-8--6--6--6------- (x4) -8-
-6--6--6-6--6--6--6-6-6-6-6-6--6--6-6--6--6--6-3-4-3-      -6-
---------------------------------------4--4--4-------      ---



Transcribed by,
tsunvun86 @ SCANDAL HEAVEN

Written by tsunvun86

January 28, 2011 at 9:40 pm

miwa – Otoshimono [Chords & Tabs]

leave a comment »


miwa - Otoshimono

Am7 - x02010
G/B - x20033
C/E - 032010
Esus4 - 022200
D/F# - 200232 or just play D
E/G# - 422100 or just play E

Intro:
C Em F E7
Am7 G F G
C

Verse:
C G/B Am7 G
F C/E Dm G
C G/B Am7 G C
F C/E Dm G

Pre-Chorus:
F G Am7
F E7 Am7 G
F G E7 Am7
Dm Esus4 E

Chorus:
Am7 Em     )
F G C G/B  } (x3)
Am7 G D/F#
Dm Em F
G

Instrumental:
C Em F E7
Am7 G F G

repeat Verse

repeat Pre-Chorus

Chorus 2:
Am7 Em
F G C G/B
Am7 G F Em
F G C G/B
Am7 Em
F G C G/B
Am7 G D/F#
Dm Em F
G

Solo:
Am E/G# G D/F#
F D/F# G G E/G#
Am E/G# G D/F#
F G

Bridge:
F C/E G Am7 (x2)
Dm Em
F Am7
Dm G

repeat Chorus

E/G#

repeat Chorus 2

Outro:
Am7 G F C/E
Dm G C

Solo:
-----------------------------------------------------------------
-5----5--------------------------13--15-13-15b17-15b17b15-13-----
-7b9--7b9b7p5-7------------12-14---------------------------------
----------------6-6---/14----------------------------------------
-----------------------------------------------------------------
-----------------------------------------------------------------

-------------------------------------------7-----7---------------
-18\13-13\10-10\6-6--19\15-15\10 10\7-7-8--10b12-10b12-----------
---------------------------------------------------------9-------
-----------------------------------------------------------------
-----------------------------------------------------------------
-----------------------------------------------------------------

-----------------------------------------------------------------
-8h10-10--10-10-10\9-9--9-9-9\8-8--8-8-8\7-7----------------8-10-
--------------------------------------------------5-5---5/9------
-----------------------------------------------/7-----7----------
-----------------------------------------------------------------
-----------------------------------------------------------------

-8-10b12b10p8--10b12-10b12b10p8-10-------15----15b17~~b15--------
-----------------------------------------------------------------
-------------------------------------/12----12-------------------
-----------------------------------------------------------------
-----------------------------------------------------------------
-----------------------------------------------------------------

Transcribed by,
tsunvun86 @ little-miwa.com

Written by tsunvun86

December 10, 2010 at 12:59 pm

%d bloggers like this: