Know Music, Know Life

tsunvun86's Guitar Chords & Tabs

Posts Tagged ‘chords

Utada Hikaru – DEEP RIVER (Guitar Tabs)

leave a comment »


After finding out about Hikki’s marriage(1, 2) I decided today is to be Utada Hikaru appreciation day to finally once and for all give up on marrying Hikki myself hahaha. Switched my music player to her playlist and stopped at DEEP RIVER. From there I just kept looping it. I dug out my old handwritten tabs from more than 5 years ago and grabbed my guitar. Below is a typed up and amended version. Hikki I wish you all the happiness in the world.

Utada Hikaru - DEEP RIVER

Bmadd11 - x24430    
Gadd9 - 3x020x 
Asus2 - x02200         
Asus2/F# - 202200
Emadd9 - 024000
Dmaj7/F# - 24023x
F#7sus4 - 242422
Gmaj9 - 3x0202
Dsus2 - x0230
Asus2/C# - x42200

#Capo at first fret

Intro:
 Bmadd11        Gadd9     Asus2          Asus2/F#  Emadd9         Dmaj7/F# 
-------0------------------------0--------------0--------------------------
----------3-----------0---------0--------------0---------0--------------3-
-----4------4-------2---------2----2---------2-----------0--------------2-
---4--------------0---------2--------2-----2-----------4----4---------0---
-2------------------------0--------------------------2--------2-----4-----
----------------3------------------------2---------0--------------2-------

 Gadd9            F#7sus4
---------------------------2-
-------0------0---------2----
-----2------2-----4---4------
---0------0-------2-2--------
------------------4----------
-3----------------2----------

Verse 1:
 Gmaj9                   Asus2                     Emadd9      Dmaj7/F#
-------2-----------2-----------0-----------0---------------------------
-------0-----------0-----------0-----------0-------------0-----------0-
-----2-----------2-----------2-----------2---------------0-----------0-
---0-------0---0-------0---2-------2---2---------------4-----------4---
-------------------------0-----------0---------------2-------2---2-----
-3-----------3---------------------------------3-2-0-----------0-------

   Dsus2
---------0-------------0------
-------3----3--------3----3---
-----2--------2----2--------2-
---0-------------0------------
-2----------------------------
------------------------------

 Gmaj9                   Asus2                     Emadd9
-------2-----------2-----------0-----------0---------------------------
-------0-----------0-----------0-----------0-------------0-----------0-
-----2-----------2-----------2-----------2---------------0-----------0-
---0-------0---0-----------2-------2---2---------------4-----------4---
-------------------------0-----------0---------------2-------2---2-----
-3-----------3---------3-----------------------3-2-0-----------0-------

 Dsus2          Asus2/C#
-------0--------------0-
-----3----3-----------0-
---2--------2-------2---
-0----------------2-----
----------------4-------
------------------------

Chorus:
 Bmadd11        Gadd9     Asus2          Asus2/F#  Emadd9          Dmaj7/F#
-------0------------------------0--------------0---------------------------
----------3-----------0---------0--0-----------0-------------------------3-
-----4------4---2---2---------2------2-------2-----------0-----0---------2-
---4------------0-0---------2----------2---2-----------4-----4---------0---
-2------------------------0--------------------------2-----2---------4-----
----------------3------------------------2---------0---------------2-------

 Gadd9           F#7sus4
--------------------------2--
-------0-----0---------2-----
-----2-----2---------4-------
---0-----0------------------- (x2)
-------------------4---------
-3---------------2-----------

Instrumental:
 Bmadd11        Gadd9          Asus2          Asus2/F#  Emadd9         Dmaj7/F# 
-------------------------------------------------------------------------------
-----3------3--------0----0----------0----0---------0------------------------3-
-------4------------2---2----------2--------2-----2------------0-----0-------2-
---4------4---4---0---------0----2------2-------2------------4-----4-------0---
-2-----------------------------0---------------------------2-------------4-----
----------------3-----------------------------2---------0--------------2-------

   Gadd9          F#7sus4
-----------------------
---------0------0------
-------2------2---4--4-
-----0------0-----2--2-
------------------4--4-
-2-3--------------2--2-

Verse 3:
 Gmaj9                  Asus2                       Emadd9
-------2-----------2----------0-------------0---------------------------
-------0-----------0----------0-------------0-------------0-----------0-
-----2-----------2----------2-------------2---------------0-----------0-
---0-------0---0----------2-------0h2---2---------------4-----------4---
------------------------0-------------0---------------2-------2---2-----
-3-----------3----------------------------------3-2-0-----------0-------

   Dsus2        Asus2/C#    
-------0--------------0------
-----3----3-----------0------
---2--------2-------2----2---
-0----------------2--------2-
----------------4------------
-----------------------------

repeat Chorus (x2)

Outro:
 Bmadd11        Gadd9          Asus2          Asus2/F#  Emadd9           Dmaj7/F# 
-------------------------------------0-------------0----------------------------
-----3------3--------0----0----------0-------------0----------0---------------3-
-------4------------2---2----------2----2--------2------------0---------------2-
---4------4---4---0---------0----2--------2----2------------4-----4---------0---
-2-----------------------------0--------------------------2---------2-----4-----
----------------3----------------------------2---------0----------------2-------

 Gadd9          F#7sus4
------------------
-------0----0-----
-----2----------4-
---0------0-----2-
----------------4-
-3--------------2-

repeat Outro until fade....


Transcribed by,
tsunvun86
Advertisements

Written by tsunvun86

February 4, 2014 at 10:54 pm

Girls Dead Monster – My Song [Chords]

leave a comment »


 

Girls Dead Monster – My Song

Asus4 – x02230
Asus2 – x02200
Fmaj7 – x33210
G6add4 – 320010
G6 – 320000
Dsus2 – xx0230
Dsus2/F# – 2×0230
Fsus4 – 133311
EmMaj7 – 022030
Emadd2 – 022002
Fmaj13 – 133200
Gadd4 – 320013
Bsus4 – x24400
Cmaj7 – x35500
D6sus2 – x57700

Intro:
Am Asus4 Asus2 Am Asus2
Am Asus4 Em

Verse:
Am Em Am Em
Am G Fmaj7 G6add4 G6
Fmaj7 G6 Fmaj7 G6
Fmaj7 Em Am
G

repeat Verse

Pre-Chorus:
C Dsus2
C Em F G
Am Dsus2
C Em Am Eb

Chorus:
G F Em Dsus2
C Dsus2/F#
G Fsus4 F
G F Em Dsus2
C Dsus2/F#

EmMaj7 Emadd2 Fmaj13 (x2)
G6

Instrumental:
Asus2 F G
A (Asus4 A) F G (Gadd4 G)
A (A Asus2 A Asus4 A Asus2 A) F G (Gadd4 G)
A (Asus4 A) F G (Gadd4 G)
Fmaj13 G6

repeat Verse

repeat Pre-Chorus

repeat Chorus

EmMaj7 Emadd2 Fmaj13 (x3)
G6

Outro:
Asus2 Bsus4 Cmaj7 D6sus2
Fmaj13

Transcribed by,
tsunvun86

Written by tsunvun86

November 19, 2013 at 10:31 pm

FLOWER FLOWER – コーヒー Coffee (Guitar Chords)

leave a comment »


FLOWER FLOWER - Coffee

**Capo at 1st fret

Intro:
Dsus2 Asus2 E F#m (x8)

Verse:
Dsus2 Asus2 E F#m (x4)

Instrumental:
Dsus2 Asus2 E F#m (x2)

repeat Verse

Pre-Chorus:
E F#m Dsus2 Asus2
E F#m Dsus2 E
E

Chorus:
Dsus2 Asus2 E F#m (x3)

Instrumental 2:
Dsus2 Asus2 E F#m (x4)

repeat Verse (x2)

repeat Pre-Chorus

Chorus 2:
Dsus2 Asus2 E F#m (x6)

Outro:
Dsus2 Asus2 E F#m (x4)


Transcribed by,
tsunvun86

Written by tsunvun86

April 3, 2013 at 8:07 pm

FLOWER FLOWER – 宝物 Takaramono (Guitar Tabs)

leave a comment »


The audio above is a COVER of an original song made by FLOWER FLOWER.
It was never our intention to plagiarize YUI’s song or damage in any way her current works. We just decided we wanted to do a tribute of this song, because of its beautiful melody and meaningful lyrics. We certainly hope they will release this song officially in the future and we beg you to support YUI’s new stage by purchasing her music when the time comes.

Vocal: **
Guitar: tsunvun86 (Oz)
Keyboard: pmmonkey (Malaysia)
Bass: Jun (Philippines)
Mix and programming: Kikino! (Chile)

FLOWER FLOWER - Takaramono

Dsus2 - xx0230
Bm7 - x24232
Bm7/A - x04232
F#7 - 242322
s - slap strings

Intro:
 Dsus2       s  G     Dsus2    Bm7   Bm7/A s  G     Dsus2
---0---------x-------------------0---------x---------------------
-3---3-3--3--x--3-----3----3---3---3-3--3--x--3-----3------------
-2-----2--2--x----0-2-2----2---2-----2--2--x----0-2-2-----2------ (x2)
-0-----2--2--x--------0--4-----------------x--------0---4---4----
-------------x-------------4---2-----0--0--x---------------------
-------------x--3--------------------------x--3------------------

Verse:
 Dsus2       s  G     Dsus2    Bm7   Bm7/A s  G     Dsus2
---0---------x-------------------0---------x---------------------
-3---3-3--3--x--3-----3----3---3---3-3--3--x--3-----3------------
-2-----2--2--x----0-2-2----2---2-----2--2--x----0-2-2-----2------ (x2)
-0-----2--2--x--------0--4-----------------x--------0---4---4----
-------------x-------------4---2-----0--0--x---------------------
-------------x--3--------------------------x--3------------------

Instrumental:
 Dsus2       s  G     Dsus2    Bm7   Bm7/A s  G     Dsus2
---0---------x-------------------0---------x---------------------
-3---3-3--3--x--3-----3----3---3---3-3--3--x--3-----3------------
-2-----2--2--x----0-2-2----2---2-----2--2--x----0-2-2-----2------
-0-----2--2--x--------0--4-----------------x--------0---4---4----
-------------x-------------4---2-----0--0--x---------------------
-------------x--3--------------------------x--3------------------

Pre-Chorus:
 Bm7            Bm7/A          G              G
---------------------------------------------------------------
-3-----3--------3-----3--------3-----3--------3-----3----------
-2---2------2---2---2------2---4---4------4---4---4------4-----
---4------4---4---4------4---4---5------5---5---5------5---5---
-2--------------0----------------------------------------------
-------------------------------3--------------3----------------

 Bm7            Bm7/A          G              A
---------------------------------------------------------------
-3-----3--------3-----3--------3-----3-------------------------
-2---2------2---2---2------2---4---4------4---6-----6----------
---4------4---4---4------4---4---5------5---5-7---7------7-----
-2--------------0-------------------------------7------7---7---
-------------------------------3--------------5----------------

Chorus:
 D              F#7            Bm7            Bm7/A          G              A
-------------------------------------------------------------------------------------------
-3-----3--------2-----2--------3-----3--------3-----3--------3-----3-----------------------
-2---2------2---3---3------3---2---2------2---2---2------2---4---4------4---6-----6-------- (x2)
---4------4---4---2------2---2---4------4---4---4------4---4---5------5---5-7---7------7---
-5-----------------------------2--------------0-------------------------------7------7---7-
----------------2--------------------------------------------3--------------5--------------

repeat Instrumental

repeat Verse

repeat Pre-Chorus

repeat Chorus (x2)

Outro:
 D              F#7            Bm7            Bm7/A          G              A
-------------------------------------------------------------------------------------------
-3-----3--------2-----2--------3-----3--------3-----3--------3-----3-----------------------
-2---2------2---3---3------3---2---2------2---2---2------2---4---4------4---6-----6--------
---4------4---4---2------2---2---4------4---4---4------4---4---5------5---5-7---7------7---
-5-----------------------------2--------------0-------------------------------7------7---7-
----------------2--------------------------------------------3--------------5--------------

 G              Gm                 D
-------------------------3---------2---2h5p2----------
-3-----3--------3-----3-----3------3---------3--------
-4---4------4---3---3----------3---2-----------2------
---5------5---5---5----------------0-------------4----
---------------------------------------------------5--
-3--------------3-------------------------------------

Transcribed by,
tsunvun86

Written by tsunvun86

April 3, 2013 at 7:21 pm

YUI – fight [Chords]

leave a comment »


YUI - fight

**Capo at 2nd fret

Asus2 - x02200
Dsus2 - xx0230

Intro:
Asus2 Asus2
Dsus2 Asus2 E F#m (x2)

Verse:
Asus2 Dsus2 C#m F#m
Dsus2 E Asus2 G Asus2

Pre-Chorus:
Dsus2 Dm Asus2 E F#m E
Dsus2 Dm E E

Chorus:
Asus2 Dsus2 E F#m
Dsus2 Asus2 E E
Asus2 Dsus2 E C# F#m
Dsus2 E

Instrumental:
Dsus2 Asus2 E F#m
Dsus2 Asus2 E E

repeat Verse

repeat Pre-Chorus

Chorus 2:
Asus2 Dsus2 E F#m
Dsus2 Asus2 E E
Asus2 Dsus2 E C# F#m
Dsus2 E F#m

Bridge:
Dsus2 E Asus2
Dsus2 E F#m
Dsus2 E Asus2
E E

Chorus 3:
Asus2 Dsus2 E F#m
Dsus2 Asus2 E E
Asus2 Dsus2 E C# F#m
Dsus2 E F#m E
Dsus2 E
Asus2 (x4)
Asus2

Transcribed by,
tsunvun86

Written by tsunvun86

September 4, 2012 at 9:35 pm

Posted in Chords & Tabs, YUI

Tagged with , , ,

YUI – If you [Chords]

leave a comment »


YUI - If you

Intro:
E E E E

Verse:
E E E E (x2)

Pre-Chorus:
F#m G#m A (x2)
B

Chorus:
A E A E
F#m G#m A C

Instrumental:
E E E E

repeat Verse

repeat Pre-Chorus

repeat Chorus

Solo:
E E
F#m G#m Am E
F#m G#m A A
B B

Bridge:
C#m B G#m A (x2)
B

repeat Chorus

Outro:
E E E E (x2)
E

Transcribed by,
tsunvun86

Written by tsunvun86

September 4, 2012 at 9:11 pm

Posted in Chords & Tabs, YUI

Tagged with , , , ,

ONE OK ROCK – The Beginning [Chords]

with 4 comments


ONE OK ROCK - The Beginning

E/G# - 476454 OR 476xxx(POWER) OR 47xxxx(POWER)
D/F# - 254232 OR 254xxx(POWER) OR 25xxxx(POWER)

Intro:
Am F C G (x5)
F F G G

Verse:
Am F C G (x2)

Pre-Chorus:
F G F E

Chorus:
Am F C G
Am F C G E/G#

Instrumental:
Am F C G (x3)
F F G G

repeat Verse

repeat Pre-Chorus

Chorus 2:
Am F C G
Am F C G E/G# (x3)

Solo:
F E Am (x3)
G
F E Am (x3)
E

Chorus 3:
Am F C G (x3)
Am F C G D/F#
F G C Am G
F G E F

Transcribed by,
tsunvun86

Written by tsunvun86

August 27, 2012 at 9:57 pm

%d bloggers like this: