Know Music, Know Life

tsunvun86's Guitar Chords & Tabs

Archive for the ‘Hinder’ Category

Hinder – Lips of An Angle [Solo Tabs]

leave a comment »


Solo:

-----------------------------------------------------------------------------------
---------------------------------------15-15-15-15-15-15-15------------------------
-17b19b17p14-17--17b19b17p14-17--17-17-14-14-14-14-14-14-14-9/11-11-11-11-11\7-7---
-----------------------------------------------------------------------------------
------------------------------------------------------------7/9--9--9--9--9\5--5---
-----------------------------------------------------------------------------------

-----------------------------------------------------------------------------------
-15-15-15-15-17-17-15-15-17-17-15-15-17-17-17-17-19-19-19-19-19-19-19-19-19--------
-14-14-14-14-14-14-14-14-14-14-14-14-14-14-15-15-17-17-----------------------------
-------------------------------------------------------19-19-19-19-19-19-19--------
-----------------------------------------------------------------------------------
-----------------------------------------------------------------------------------

-----------------------------------------------------------------------------------
-----------------------------------------------------------------------------------
-9/11-11-11-11-11-12-12/14---------------------------------------------------------
-----------------------------------------------------------------------12/16-------
-7/9--9--9--9--9--10-10/12----/15--13h15p13--12h13p12--10h12p10--9-10---------9-10-
-----------------------------------------------------------------------------------

------------------------------------------------------------20b22b20----20----20---
--------------------------------------15-17-17b18b17p15-17-----------18----17------
----------------------17b19b17p14-17-----------------------------------------------
-12/16--------12/16----------------------------------------------------------------
--------9-10-----------------------------------------------------------------------
-----------------------------------------------------------------------------------

----------------------------------------------
----------------------------------------------
-17-19-19b21~21~21~21~21~21~21~21~21b19p17-19-
----------------------------------------------
----------------------------------------------
----------------------------------------------

Tabs by,
tsunvun86
Advertisements

Written by tsunvun86

September 2, 2010 at 12:50 am

%d bloggers like this: