Know Music, Know Life

tsunvun86's Guitar Chords & Tabs

Utada Hikaru – DEEP RIVER (Guitar Tabs)

leave a comment »


After finding out about Hikki’s marriage(1, 2) I decided today is to be Utada Hikaru appreciation day to finally once and for all give up on marrying Hikki myself hahaha. Switched my music player to her playlist and stopped at DEEP RIVER. From there I just kept looping it. I dug out my old handwritten tabs from more than 5 years ago and grabbed my guitar. Below is a typed up and amended version. Hikki I wish you all the happiness in the world.

Utada Hikaru - DEEP RIVER

Bmadd11 - x24430    
Gadd9 - 3x020x 
Asus2 - x02200         
Asus2/F# - 202200
Emadd9 - 024000
Dmaj7/F# - 24023x
F#7sus4 - 242422
Gmaj9 - 3x0202
Dsus2 - x0230
Asus2/C# - x42200

#Capo at first fret

Intro:
 Bmadd11        Gadd9     Asus2          Asus2/F#  Emadd9         Dmaj7/F# 
-------0------------------------0--------------0--------------------------
----------3-----------0---------0--------------0---------0--------------3-
-----4------4-------2---------2----2---------2-----------0--------------2-
---4--------------0---------2--------2-----2-----------4----4---------0---
-2------------------------0--------------------------2--------2-----4-----
----------------3------------------------2---------0--------------2-------

 Gadd9            F#7sus4
---------------------------2-
-------0------0---------2----
-----2------2-----4---4------
---0------0-------2-2--------
------------------4----------
-3----------------2----------

Verse 1:
 Gmaj9                   Asus2                     Emadd9      Dmaj7/F#
-------2-----------2-----------0-----------0---------------------------
-------0-----------0-----------0-----------0-------------0-----------0-
-----2-----------2-----------2-----------2---------------0-----------0-
---0-------0---0-------0---2-------2---2---------------4-----------4---
-------------------------0-----------0---------------2-------2---2-----
-3-----------3---------------------------------3-2-0-----------0-------

   Dsus2
---------0-------------0------
-------3----3--------3----3---
-----2--------2----2--------2-
---0-------------0------------
-2----------------------------
------------------------------

 Gmaj9                   Asus2                     Emadd9
-------2-----------2-----------0-----------0---------------------------
-------0-----------0-----------0-----------0-------------0-----------0-
-----2-----------2-----------2-----------2---------------0-----------0-
---0-------0---0-----------2-------2---2---------------4-----------4---
-------------------------0-----------0---------------2-------2---2-----
-3-----------3---------3-----------------------3-2-0-----------0-------

 Dsus2          Asus2/C#
-------0--------------0-
-----3----3-----------0-
---2--------2-------2---
-0----------------2-----
----------------4-------
------------------------

Chorus:
 Bmadd11        Gadd9     Asus2          Asus2/F#  Emadd9          Dmaj7/F#
-------0------------------------0--------------0---------------------------
----------3-----------0---------0--0-----------0-------------------------3-
-----4------4---2---2---------2------2-------2-----------0-----0---------2-
---4------------0-0---------2----------2---2-----------4-----4---------0---
-2------------------------0--------------------------2-----2---------4-----
----------------3------------------------2---------0---------------2-------

 Gadd9           F#7sus4
--------------------------2--
-------0-----0---------2-----
-----2-----2---------4-------
---0-----0------------------- (x2)
-------------------4---------
-3---------------2-----------

Instrumental:
 Bmadd11        Gadd9          Asus2          Asus2/F#  Emadd9         Dmaj7/F# 
-------------------------------------------------------------------------------
-----3------3--------0----0----------0----0---------0------------------------3-
-------4------------2---2----------2--------2-----2------------0-----0-------2-
---4------4---4---0---------0----2------2-------2------------4-----4-------0---
-2-----------------------------0---------------------------2-------------4-----
----------------3-----------------------------2---------0--------------2-------

   Gadd9          F#7sus4
-----------------------
---------0------0------
-------2------2---4--4-
-----0------0-----2--2-
------------------4--4-
-2-3--------------2--2-

Verse 3:
 Gmaj9                  Asus2                       Emadd9
-------2-----------2----------0-------------0---------------------------
-------0-----------0----------0-------------0-------------0-----------0-
-----2-----------2----------2-------------2---------------0-----------0-
---0-------0---0----------2-------0h2---2---------------4-----------4---
------------------------0-------------0---------------2-------2---2-----
-3-----------3----------------------------------3-2-0-----------0-------

   Dsus2        Asus2/C#    
-------0--------------0------
-----3----3-----------0------
---2--------2-------2----2---
-0----------------2--------2-
----------------4------------
-----------------------------

repeat Chorus (x2)

Outro:
 Bmadd11        Gadd9          Asus2          Asus2/F#  Emadd9           Dmaj7/F# 
-------------------------------------0-------------0----------------------------
-----3------3--------0----0----------0-------------0----------0---------------3-
-------4------------2---2----------2----2--------2------------0---------------2-
---4------4---4---0---------0----2--------2----2------------4-----4---------0---
-2-----------------------------0--------------------------2---------2-----4-----
----------------3----------------------------2---------0----------------2-------

 Gadd9          F#7sus4
------------------
-------0----0-----
-----2----------4-
---0------0-----2-
----------------4-
-3--------------2-

repeat Outro until fade....


Transcribed by,
tsunvun86
Advertisements

Written by tsunvun86

February 4, 2014 at 10:54 pm

Leave a Reply

Fill in your details below or click an icon to log in:

WordPress.com Logo

You are commenting using your WordPress.com account. Log Out / Change )

Twitter picture

You are commenting using your Twitter account. Log Out / Change )

Facebook photo

You are commenting using your Facebook account. Log Out / Change )

Google+ photo

You are commenting using your Google+ account. Log Out / Change )

Connecting to %s

%d bloggers like this: