Know Music, Know Life

tsunvun86's Guitar Chords & Tabs

Posts Tagged ‘no

SCANDAL – 下弦の月 Kagen no Tsuki (Bass Tabs)

with 3 comments


[04/08/2013] Updated “Bridge”
[04/08/2013] Updated “Chorus” & “Chorus 2”


SCANDAL - Kagen no Tsuki (bass)

Intro:
|-9-9h11----9-----9------|
|-------------11----11---|
|----------------------9-|
|------------------------|

|---------------------------------------------------------------|
|-------4(x4)-2(x4)-1---1----------4(x4)-2(x4)-1---1------------|
|-2-3-4---------------2---4--2-3-4---------------2---4--2-3-4---|
|-------------------------------------------------------------2-|


Verse 1:
|----------------|
|----------2-----|
|-2--2--4----4-0-|
|----------------|

|-------------------------------|
|---------2---------------------|
|-----2-4---2--0-2-2-0-4--4-2-0-|(x2)
|-2-2---------------------------|

|-------------------------------|
|---------2---------------------|
|-----2-4---2--0-2-2-0-4--4-4-4-|
|-2-2---------------------------|


Pre-Chorus 1:
|---------------------------------------------------------|
|---------------------------------------------------------|
|-5--5--5---5-5-8--8--8---8-8-9--9--9---9-9-2--2--2---2-2-|
|---------5-------------9-------------9-------------2-----|

|-------------------------------------------|
|-------------------------------------------|
|-5--4-4--2-----------------------------4-4-|
|---------------5--5-0-5--4--4(x3)-0-4------|


Chorus:
|--------------------------------------------------------------------------------------|
|--------------------------------------------------------------------------------------|
|-------------4-6--6(x7)---6-8-9-8-6------------/14-14(x6)-----------------------------|
|-2--2(x12)-6------------6-----------9-7--7(x5)------------14\9-9--9(x6)-10-10--9--9-9-|

|----------------------------------------------------------------------------------------------|
|----------------------------------------------------------------------------------------------|
|----------6-6---------------------------------------/11-11(x6)---------------5---5--7----7--9-|
|-7--7(x8)-----9-9-7-7-6--6(x8)-9-9-7-7-6-6-4--4(x5)------------11\9-9--9(x6)---5-------7------|


Instrumental:
|-9h11(x3)--9----|
|-------------11-|
|----------------|
|----------------|


Verse 2:
|-------------------------------|
|---------2---------------------|
|-----2-4---2--0-2-2-0-4--4-2-0-|
|-2-2---------------------------|

|--------------|
|---4-2--------|
|-------4--2-0-|(x2)
|-2------------|

|-------------------------------|
|---------2---------------------|
|-----2-4---2--0-2-2-0-4--4-2-0-|
|-2-2---------------------------|

|-------------------------------|
|---------2---------------------|
|-----2-4---2--0-2-2-0-4--4-4-4-|
|-2-2---------------------------|


Pre-Chorus 2:
|--------------------------------------------------------|
|-------------------------------------------------9--9---|
|-5--5--5---5-5-8--8--8---8-8-9--9--9---9-9---6-9------9-|
|---------5-------------9-------------9-----7------------|

|-------------------------------------------|
|-------------------------------------------|
|-5--4-4--2-----------------------------4-4-|
|---------------5--5-0-5--4--4(x3)-0-4------|


repeat Chorus


Bridge:
|------------------------------------------------------------|
|--------4-2h4--------4-2h4------------4(x9)---4-6-7-6-4-----|
|----------------------------------2/4-------4-----------7-5-|
|-2(x13)-------2(x13)-------2(x14)---------------------------|

|----------------------------------------------------|
|----------------------------------------------------|
|-/14-14--14--14--12------12--11--11(x6)-------------|
|---------------------12-----------------9-9--10--12-|


Chorus 2:
|--------------------------------------------------------------------------------------|
|--------------------------------------------------------------------------------------|
|-------------4-6--6(x7)---6-8-9-8-6------------/14-14(x6)-----------------------------|
|-2--2(x12)-6------------6-----------9-7--7(x5)------------14\9-9--9(x6)-10-10--9--9-9-|

|--------------------------------------------------------------|
|--------------------------------------------------------------|
|------------------------------6-6-4-4-3-3-4--4(x8)-/16-16(x4)-|
|-7--7(x14)-6--6(x14)-4--4(x8)---------------------------------|

|--------------------------------------------------------------------------------------|
|--------------------------------------------------------------------------------------|
|----------6-6----------------------------------/11-11(x6)---------------5---5--7----7-|
|-7--7(x8)-----9-9-7-7-6(x10)-9-9-7-7-6-6-4(x7)------------11\9-9--9(x6)---5-------7---|


Outro:
|---------------------------------|
|---------------------------------|
|-----0-----0-----0-----0---7-8-9-|
|-2-4---2-4---2-4---2-4-----------|


Transcribed by,
tsunvun86

Written by tsunvun86

August 3, 2013 at 6:13 pm

FLOWER FLOWER – 愛の歌 Ai no Uta (Guitar Chords & Tabs)

with one comment



FLOWER FLOWER - 愛の歌 Ai no Uta

**Capo at 2nd fret

Intro:
Dsus2 E Asus2 (x2)
Dsus2 E C#m F#m
Dsus2 E Asus2 Asus2 Asus2 Asus2

Verse:
Dsus2 E C#m F#m )
Dsus2 E Asus2   } (x4)

Pre-Chorus:
C#m F#m
Bm E
C#m F#m
Bm Bm E E

Chorus:
Dsus2 E Asus2
Bm E Asus2
Dsus2 E C#m F#m
Dsus2 E Asus2
Asus2

Instrumental:
Dsus2 E Asus2
Bm E Asus2
Dsus2 E C#m F#m
Dsus2 E Asus2
Asus2 (x2)

repeat Verse

repeat Pre-Chorus

repeat Chorus (x2)

Bridge:
F#m E
Dsus2 Asus2
F#m E
Dsus2 (E x8)

repeat Chorus

Chorus 2:
Dsus2 E Asus2
Bm C#7 F#m
Dsus2 E C#m F#m
Dsus2 E Asus2
Asus2 (x3)

Outro:
Dsus2 E Asus2
Bm E Asus2
Dsus2 E C#m F#m
Dsus2 E Asus2
Asus2 (x8)
-----------------------------------------------------------------------------------------

Intro:
 Dsus2 E     Asus2       Dsus2 E     Asus2       Dsus2 E     C#m   F#m
-------------------------------------------------------------------------
-3---0-------------0-----3---0-------------0-----3---0-------5-----2-----
---2-------1-----2---2-----2-------1-----2---2-----2-------0-6-----2-----
-0-------2---2-2-------0-0-------2---2-2-------0-0-------2-----6-5---4-5-
-------------0-----------------------0-----------------------4-----------
-------0-----------------------0-----------------------0-----------2-----

 Dsus2 E     Asus2       Asus2       Asus2       Asus2
-------------------------------------------0-----0--
-3---0-------------0-----------0-----0---0---0---0--
---2-------1-----2---2-------2---2-----2-------2-2--
-0-------2-----2-------2---2-------2-------------2--
-------------0-----------0-----------0-----------0--
-------0--------------------------------------------

Verse:
 Dsus2 E     C#m   F#m    Dsus2 E     Asus2
--------------------------------------------------
-3---0-------5-----2------3---0-------------0-----
---2-------0-6-----2--------2-------1-2---2---2--- (x4)
-0-------2-----6-5---4-5--0-------2-----2-------0-
-------------4------------------------0-----------
-------0-----------2------------0-----------------

Pre-Chorus
 C#m         F#m         Bm          E           C#m         F#m
--------------------------------------------------------------------------
-5-----5-----2-----2-----3-----3-----0-----0-----5-----5-----2-----2------
-6---6---6---2---2---2---4---4---4---1---1---1---6---6---6---2---2---2----
---6-------6---4-------4---4-------4---2-------0---6-------6---4-------4--
-4-----------------------2-----------------------4------------------------
-------------2-----------------------0-----------------------2------------

 Bm         Bm          E           E
------------------------------------0-
-3-----3----3-----3-----0-----0-----0-
-4---4----4-----4---4---1---1---1---1-
---4----------4-------4---2-------2-2-
-2----------2-----------------------2-
------------------------0-----------0-

Chorus:
 Dsus2 E     Asus2       Bm    E     Asus2       Dsus2 E     C#m   F#m
-------------------------------------------------------------------------
-3---0-------------0-----3-----------------0-----3---0-------5-----2-----
---2-------1-2---2---2---4---4-----1-2---2---2-----2-------0-6-----2-----
-0-------2-----2-------0---4-----2-----2-------0-0-------2-----6-5---4-5-
-------------0-----------2-----------0-----------------------4-----------
-------0-----------------------0-----------------------0-----------2-----

 Dsus2 E     Asus2       Asus2
-------------------------0-----
-3---0-------------0-----0-----
---2-------1-2---2---2---2-----
-0-------2-----2-------2-2-----
-------------0-----------0-----
-------0-----------------------

Instrumental:
 Dsus2 E     Asus2       Bm    E     Asus2       Dsus2 E     C#m   F#m
-------------------------------------------------------------------------
-3---0-------------0-----3-----------------0-----3---0-------5-----2-----
---2-------1-2---2---2---4---4-----1-2---2---2-----2-------0-6-----2-----
-0-------2-----2-------0---4-----2-----2-------0-0-------2-----6-5---4-5-
-------------0-----------2-----------0-----------------------4-----------
-------0-----------------------0-----------------------0-----------2-----

 Dsus2 E     Asus2       Asus2       Asus2       Asus2
-------------------------------------0-----0-----0--
-3---0-------------0-----------0---------0---0---0--
---2-------1-----2---2-------2---2-----2-------2-2--
-0-------2-----2-------2---2-------2-------------2--
-------------0-----------0-----------0-----------0--
-------0--------------------------------------------

repeat Verse

repeat Pre-Chorus

repeat Chorus (x2)

Bridge:
F#m E
Dsus2 Asus2
F#m E
Dsus2 (E x8)

repeat Chorus

Chorus 2:
Dsus2 E Asus2
Bm C#7 F#m
Dsus2 E C#m F#m
Dsus2 E Asus2
Asus2 (x3)

Outro:
Dsus2 E Asus2
Bm E Asus2
Dsus2 E C#m F#m
Dsus2 E Asus2
Asus2 (x8)


#############################################################################################

**Without capo

Intro:
Esus2 F# Bsus2 (x2)
Esus2 F# Ebm G#m
Esus2 F# Bsus2 Bsus2 Bsus2 Bsus2

Verse:
Esus2 F# Ebm G#m )
Esus2 F# Bsus2   } (x4)

Pre-Chorus:
Ebm G#m
C#m F#
Ebm G#m
C#m C#m F# F#

Chorus:
Esus2 F# Bsus2
C#m F# Bsus2
Esus2 F# Ebm G#m
Esus2 F# Bsus2
Bsus2

Instrumental:
Esus2 F# Bsus2
C#m F# Bsus2
Esus2 F# Ebm G#m
Esus2 F# Bsus2
Bsus2 (x2)

repeat Verse

repeat Pre-Chorus

repeat Chorus (x2)

Bridge:
G#m F#
Esus2 Bsus2
G#m F#
Esus2 (F# x8)

repeat Chorus

Chorus 2:
Esus2 F# Bsus2
C#m Eb7 G#m
Esus2 F# Ebm G#m
Esus2 F# Bsus2
Bsus2 (x3)

Outro:
Esus2 F# Bsus2
C#m F# Bsus2
Esus2 F# Ebm G#m
Esus2 F# Bsus2
Bsus2 (x8)


Transcribed by,
tsunvun86

Written by tsunvun86

April 3, 2013 at 7:44 pm

YUI – Good-bye days ~YUI Acoustic Version~ [Chords]

with one comment


YUI - Good-bye days ~YUI Acoustic Version~

Asus2 - x02200
Dsus2 - xx0230
Asus2/F# - 202200

Intro:
F#m E Dsus2 (x2)
E

Verse:
Asus2 E Bm7 Dsus2
Asus2 E Asus2/F# E
Asus2 E Bm7 Dsus2
Asus2 E Asus2/F# Dsus2

Pre-Chorus:
Bm7 C#m7
Dsus2 G E
F#

Chorus:
Dsus2 E Asus2/F# Asus2
Dsus2 E Asus2/F# F#
Dsus2 E Asus2/F# Asus2
Bm7
Bm7 C#m7 Dm7

Instrumental:
F#m E Dm Asus2
F#m E Dsus2
E

repeat Verse

repeat Pre-Chorus

repeat Chorus

Asus2

Bridge
Asus2/F# E Dm Asus2
Asus2/F# E Dsus2 Asus2
Asus2/F# E Dm Asus2
Asus2/F# E Dsus2

repeat Chorus

Outro:
Asus2 E Dsus2
Asus2 E Dsus2 E x2
Asus2 E Dsus2
Dsus2

Transcribed by,
tsunvun86

Written by tsunvun86

March 2, 2012 at 12:16 pm

YUI – HOW CRAZY YOUR LOVE [Chords & Tabs]

leave a comment »

Written by tsunvun86

October 30, 2011 at 5:14 pm

YUI – no Reason [Chords & Tabs]

with one comment


YUI - no Reason

Intro:
D G A A (x2)

Verse:
D Em G A (x2)

Pre-Chorus:
F#m F#m Bm Bm
G G A

Chorus:
D G Bm A (x2)

Instrumental:
D G A A (x2)

repeat Verse

repeat Pre-Chorus

repeat Chorus

Bridge:
D G Bm A (x2)
Em A

Chorus 2:
D G Bm A (x4)

Outro:
D G A A (x2)
G

Intro/Instrumental:
Guitar 1
-----------------------------------------------------------------------------------
-8-10--8--7h8p7--------------------------------7-8--8-10--8--7h8p7-----------------
----------------7-7/9--7-7--7-6-6-6-7-9--9-9-9---------------------7-7/9--7-7------
-----------------------------------------------------------------------------------
-----------------------------------------------------------------------------------
-----------------------------------------------------------------------------------
Guitar 2
-----------------------------------------------------------------------------------
-----------------------------------------------------------------------------------
-9-11--9--7h9p7-------------------------------------7-9--9-11--9--7h9p7------------
----------------7-9/11-9-9--9-7-7-7-9-9/11-11-11-11---------------------7-9/11-9-9-
-----------------------------------------------------------------------------------
-----------------------------------------------------------------------------------
Guitar 3
-----------------------------------------------------------------------------------
-----------------------7-7-5-5-3-3-2-2-------------------------------------7-7-5-5-
-----------------------7-7-6-6-4-4-2-2-------------------------------------7-7-6-6-
-----------------------------------------------------------------------------------
-----------------------------------------------------------------------------------
-----------------------------------------------------------------------------------

_____________________

Guitar 1
---------------------------------------
--------------7-7-7-8--10--14-15-------
-7-6-6-6-7-9---------------------------
---------------------------------------
---------------------------------------
---------------------------------------
Guitar 2
---------------------------------------
---------------------------------------
-----------------7-7-7-9--11--11/12-11-
-9-7-7-7-9-9/11------------------------
---------------------------------------
---------------------------------------
Guitar 3
---------------------------------------
-3-3-2-2-------------------------------
-4-4-2-2-------------------------------
---------------------------------------
---------------------------------------
---------------------------------------

Outro:
Guitar 1
-----------------------------------------------------------------------------------
-8-10--8--7h8p7--------------------------------7-8--8-10--8--7h8p7-----------------
----------------7-7/9--7-7--7-6-6-6-7-9--9-9-9---------------------7-7/9--7-7------
-----------------------------------------------------------------------------------
-----------------------------------------------------------------------------------
-----------------------------------------------------------------------------------
Guitar 2
-----------------------------------------------------------------------------------
-----------------------------------------------------------------------------------
-9-11--9--7h9p7-------------------------------------7-9--9-11--9--7h9p7------------
----------------7-9/11-9-9--9-7-7-7-9-9/11-11-11-11---------------------7-9/11-9-9-
-----------------------------------------------------------------------------------
-----------------------------------------------------------------------------------
Guitar 3
-----------------------------------------------------------------------------------
-----------------------7-7-5-5-3-3-2-2-------------------------------------7-7-5-5-
-----------------------7-7-6-6-4-4-2-2-------------------------------------7-7-6-6-
-----------------------------------------------------------------------------------
-----------------------------------------------------------------------------------
-----------------------------------------------------------------------------------

_____________________

Guitar 1
-------------------------------------------------
--------------7-7-7-8--10--14-14/15--14--12------
-7-6-6-6-7-9-------------------------------------
-------------------------------------------------
-------------------------------------------------
-------------------------------------------------
Guitar 2
-------------------------------------------------
-------------------------------------------------
-----------------7-7-7-9--11--11/12-11--9--10/12-
-9-7-7-7-9-9/11----------------------------------
-------------------------------------------------
-------------------------------------------------
Guitar 3
-------------------------------------------------
-3-3-2-2-----------------------------------------
-4-4-2-2-----------------------------------------
-------------------------------------------------
-------------------------------------------------
-------------------------------------------------


Transcribed by,
tsunvun86

Written by tsunvun86

October 30, 2011 at 3:41 pm

Posted in Chords & Tabs, YUI

Tagged with , , , , , , , , ,

SCANDAL – Hajimete no Chuu [Chords & Tabs]

with 2 comments


SCANDAL - Hajimete no Chuu [cover]

Intro:
Bb Eb F (x2)

Verse:
Bb Eb F Bb (x2)

Pre-Chorus:
Dm Gm (x2)
Cm Dm Eb (x2)
Eb F

Chorus:
Bb Dm Gm Dm   )
Eb Dm Gm Cm F } (x2)

Instrumental:
Bb Eb F (x2)

repeat Verse

repeat Pre-Chorus

repeat Chorus

Bb

[CLAP]

repeat Chorus

repeat Instrumental

Outro:
Bb Eb F (x4)
Bb


Intro/Instrumental Solo:
----------------------------
---------------4------------
-3--5-3-5-3------5/7-5--5-5-
-------------5--------------
----------------------------
----------------------------

Transcribed by,
tsunvun86

Written by tsunvun86

October 4, 2010 at 11:58 pm

Stereopony – Namida no Mukou~AIMI Acoustic Version~ [Chords & Tabs]

with one comment


Stereo Pony - Namida no Mukou ~AIMI Acoustic Version~

Intro:
F# G# Fm Bbm
Ebm B
Bbm F# G#
Bbm F# F

Verse:
Bbm F# G# (x3)
F# G# Fm Bbm
Ebm B F F

Chorus:
F# G# Fm Bbm
Ebm B
F# F
F# G# Fm Bbm
Ebm B

Instrumental:
Bbm F# G#
Bbm F# F

repeat Verse

Chorus 2:
F# G# Fm Bbm
Ebm B
F# F
F# G#

Solo:
Ebm B F F

Bridge:
Ebm F Bbm Bbm (x2)
Ebm B F F

repeat Chorus

Outro:
Bbm F# G#
Bbm F# F
Bbm F# G#
Bbm F# F
F#


Intro/Instrumental Solo:
-----------------------------------------------------------
---------------------------------------------------------6-
-5-6-5h6p5---6/8--5--6----5-6-5h6p5---6/8--5--6--5h6p5-----
-----------6------------------------6------------------6---
-----------------------------------------------------------
-----------------------------------------------------------

Solo:
-----------------------------------------------------------
-/7--6h7p6--------------------------------8----------10----
-----------6-----------------------------------------------
-------------6--6h8--------------------/8---8--8/10-----10-
---------------------9--8h9p8------------------------------
------------------------------9-9/11-----------------------

----------------------------------------------------
-11-----11--11/13--11/13----------------------------
----------------------------------------------------
-----11-----11/13--11/13----------------------------
----------------------------------------------------
----------------------------------------------------

Outro Solo:
-----------------------------------------------------------
---------------------------------------------------------6-
-5-6-5h6p5---6/8--5--6----5-6-5h6p5---6/8--5--6--5h6p5----- (x2)
-----------6------------------------6------------------6---
-----------------------------------------------------------
-----------------------------------------------------------



Chords & Tabs by,
tsunvun86

Written by tsunvun86

September 10, 2010 at 10:10 pm

%d bloggers like this: