Know Music, Know Life

tsunvun86's Guitar Chords & Tabs

Posts Tagged ‘bass

東京事変 Tokyo Jihen – キラーチューン Killer Tune [Bass Tabs]

leave a comment »


Tokyo Jihen - Killer Tune (bass)

Tunning: D# G# C# F#

Intro:
|-------------------------------------------------10-11-13--14-----------------|
|---------------------4-5-6-7-------------12---11--------------14-----15-------|
|---------4---------7---------0-7-0-5~5/--------------------------12-----15----|
|-5----4-----2--2/----------------------------------------------------------13-|

|--------------------------|
|-------12----12h14-14-14\-|
|-14-14----14--------------|
|--------------------------|

|--------------------|     |-----------------|
|--------------------|     |-----------------|
|--------------------|(x3) |-----------------| 
|-5-7-5-0-5-7-5-5--0-|     |-5-7-5-0-5-7-5-5-|


Verse 1:
|-----------------------------------------------------------------------|
|-----------4-5-7-6-6---------------------2-4-2---------------------2h4-|
|-0-4-5-6-7-----------6\4---4-4---4---0-4-------4---------2h4-0-2-4-----|
|-------------------------4-----4---2-------------2-0-2-3---------------|

|-----------------------------4-3-2---------------------------------------|
|-0-4-5-6-7-----7---3-6-----3-------2---2-3-----3-----0-2/4-2-2/14-14-14\-|
|-----------0-5---4-----4-2-----------0-----0-2---2-2---------------------|
|-------------------------------------------------------------------------|


Chorus:
|-------------------------------------------------------------------------|
|-------------------------------------------------------------------------|
|-0(x8)-8(x8)-7(x8)-5(x8)-4(x8)-3(x8)-2-2-4-4-5-5-2-2-7-7-9-9-10-10-11-11-|
|-------------------------------------------------------------------------|

|-------------------------------------------------------------------------------|
|-------------------------------------------------------------------------------|
|-0(x8)-4(x8)-7(x8)-6(x4)-5(x4)-4(x8)-3(x8)-2-2-4-4-5-5-2-2-7-7-9-9-10-10-11-11-|
|-------------------------------------------------------------------------------|


Instrumental:
|--------------------------------------------------------14--------------|
|-------------------10---------------------------------------------------|
|-/12-10-12-8-10-12----/10-12--------/12-10-12-8-10-12/14---/10-12-------|
|------------------------------8--6---------------------------------8--6-|

|----------------------------------------------------------------------|
|-------------------------------------------------------------8/10--8~-|
|-/12-10-12-8-10-12--/10-12--------/12-10-12-8-10-12--/10-12-----------|
|----------------------------8--6--------------------------------------|

|-\14-| |--------------------|
|-----| |--------------------|
|-----| |--------------------|(x4)
|-----| |-5-7-5-0-5-7-5-5--0-|


Verse 2:
|-----------------------19-----18-----18-11------------10--11--13--14-----------------|
|------------4--4/17-17----17-----17---------\12--/11-----------------14-----15-------|
|---------4--------------------------------------------------------------12-----15----|
|-5----4---------------------------------------------------------------------------13-|

|-------------------------|
|-------12----14-14-------|
|-14-14----14-------14----|
|----------------------12-|

|----------------------------------------------------------------------|
|-----------4-5-7-6-6---------------4-2-----------2/4-2-2-0---------2/-|
|-0-4-5-6-7-----------6\4---4-4---4-----4-----0-4-----------2-0-2-4----|
|-------------------------4-----4---------0-2--------------------------|

|--------------------------------4-3-2-----------------------------------------|
|-0-14-15-16~--0-0-0-----6-----3-------2---2-3-----0-----0-2/4-2-2/14-14-14-14-|
|--------------------4-4---4-2-----------0-----0-2---2-2-----------------------|
|------------------------------------------------------------------------------|


repeat Chorus


Outro:
|------------------------------------------13--14--------|
|--------------------------14------12--11----------------|
|-12---14---16--4--5---12------14--------------------\12-|
|--------------------------------------------------------|

|--------------------|     |----------------------------|
|--------------------|     |----------------------------|
|--------------------|(x7) |---------/12--12-12--12-12--| 
|-5-7-5-0-5-7-5-5--0-|     |-5-7-5-0--------------------|

|---------------------------------------------------------------------------------------------------|
|-------------------------------------------11----11---11----11--11-11---12----12---12----12--12-12-|
|----------------------------------------------11---------11----------------12---------12-----------| (x2)
|-5-7-5---5-7-5--5-5---7-9-7---7-9-7--7-7-----------------------------------------------------------|

|-----------------------|
|-----------------------|
|-0-----/12---10h12(x3)-|
|-----------------------|


Transcribed by,
tsunvun86
Advertisements

Written by tsunvun86

August 11, 2013 at 4:51 pm

SCANDAL – 下弦の月 Kagen no Tsuki (Bass Tabs)

with 3 comments


[04/08/2013] Updated “Bridge”
[04/08/2013] Updated “Chorus” & “Chorus 2”


SCANDAL - Kagen no Tsuki (bass)

Intro:
|-9-9h11----9-----9------|
|-------------11----11---|
|----------------------9-|
|------------------------|

|---------------------------------------------------------------|
|-------4(x4)-2(x4)-1---1----------4(x4)-2(x4)-1---1------------|
|-2-3-4---------------2---4--2-3-4---------------2---4--2-3-4---|
|-------------------------------------------------------------2-|


Verse 1:
|----------------|
|----------2-----|
|-2--2--4----4-0-|
|----------------|

|-------------------------------|
|---------2---------------------|
|-----2-4---2--0-2-2-0-4--4-2-0-|(x2)
|-2-2---------------------------|

|-------------------------------|
|---------2---------------------|
|-----2-4---2--0-2-2-0-4--4-4-4-|
|-2-2---------------------------|


Pre-Chorus 1:
|---------------------------------------------------------|
|---------------------------------------------------------|
|-5--5--5---5-5-8--8--8---8-8-9--9--9---9-9-2--2--2---2-2-|
|---------5-------------9-------------9-------------2-----|

|-------------------------------------------|
|-------------------------------------------|
|-5--4-4--2-----------------------------4-4-|
|---------------5--5-0-5--4--4(x3)-0-4------|


Chorus:
|--------------------------------------------------------------------------------------|
|--------------------------------------------------------------------------------------|
|-------------4-6--6(x7)---6-8-9-8-6------------/14-14(x6)-----------------------------|
|-2--2(x12)-6------------6-----------9-7--7(x5)------------14\9-9--9(x6)-10-10--9--9-9-|

|----------------------------------------------------------------------------------------------|
|----------------------------------------------------------------------------------------------|
|----------6-6---------------------------------------/11-11(x6)---------------5---5--7----7--9-|
|-7--7(x8)-----9-9-7-7-6--6(x8)-9-9-7-7-6-6-4--4(x5)------------11\9-9--9(x6)---5-------7------|


Instrumental:
|-9h11(x3)--9----|
|-------------11-|
|----------------|
|----------------|


Verse 2:
|-------------------------------|
|---------2---------------------|
|-----2-4---2--0-2-2-0-4--4-2-0-|
|-2-2---------------------------|

|--------------|
|---4-2--------|
|-------4--2-0-|(x2)
|-2------------|

|-------------------------------|
|---------2---------------------|
|-----2-4---2--0-2-2-0-4--4-2-0-|
|-2-2---------------------------|

|-------------------------------|
|---------2---------------------|
|-----2-4---2--0-2-2-0-4--4-4-4-|
|-2-2---------------------------|


Pre-Chorus 2:
|--------------------------------------------------------|
|-------------------------------------------------9--9---|
|-5--5--5---5-5-8--8--8---8-8-9--9--9---9-9---6-9------9-|
|---------5-------------9-------------9-----7------------|

|-------------------------------------------|
|-------------------------------------------|
|-5--4-4--2-----------------------------4-4-|
|---------------5--5-0-5--4--4(x3)-0-4------|


repeat Chorus


Bridge:
|------------------------------------------------------------|
|--------4-2h4--------4-2h4------------4(x9)---4-6-7-6-4-----|
|----------------------------------2/4-------4-----------7-5-|
|-2(x13)-------2(x13)-------2(x14)---------------------------|

|----------------------------------------------------|
|----------------------------------------------------|
|-/14-14--14--14--12------12--11--11(x6)-------------|
|---------------------12-----------------9-9--10--12-|


Chorus 2:
|--------------------------------------------------------------------------------------|
|--------------------------------------------------------------------------------------|
|-------------4-6--6(x7)---6-8-9-8-6------------/14-14(x6)-----------------------------|
|-2--2(x12)-6------------6-----------9-7--7(x5)------------14\9-9--9(x6)-10-10--9--9-9-|

|--------------------------------------------------------------|
|--------------------------------------------------------------|
|------------------------------6-6-4-4-3-3-4--4(x8)-/16-16(x4)-|
|-7--7(x14)-6--6(x14)-4--4(x8)---------------------------------|

|--------------------------------------------------------------------------------------|
|--------------------------------------------------------------------------------------|
|----------6-6----------------------------------/11-11(x6)---------------5---5--7----7-|
|-7--7(x8)-----9-9-7-7-6(x10)-9-9-7-7-6-6-4(x7)------------11\9-9--9(x6)---5-------7---|


Outro:
|---------------------------------|
|---------------------------------|
|-----0-----0-----0-----0---7-8-9-|
|-2-4---2-4---2-4---2-4-----------|


Transcribed by,
tsunvun86

Written by tsunvun86

August 3, 2013 at 6:13 pm

%d bloggers like this: