Know Music, Know Life

tsunvun86's Guitar Chords & Tabs

Posts Tagged ‘free

Taeyeon – Set me free (theMUSIC Acoustic Version) [Chords & Tabs]

leave a comment »


Taeyeon - Set me free (theMUSIC Acoustic Version)

#Capo on 2nd fret

Amaj7 - x02224 / 5x665x
A6 - x02222
Emaj9 - 0x4444
Bbm7b5 - 6x665x
G#m7no5 - 4x440x
F#m11no5 - 2x2200
EaddC - 032100
E6 - 042100
F#m11#5 - 2x0200
B11/F# - 2x1200
B9sus4 - x22222

Intro:
 Amaj7                       A6  Emaj9
-4---4---4---4---4---4---4---2------4---4---4---4--------------
-2---2---2---2---2---2---2---2-----4----4---4---4------4-----4-
---2---2---2---2---2---2---2---2--4---4---4---4---4---4----4---
-----------------------------------------------------4---4-----
-0---------------0---------------------------------------------
---------------------------------0------------------0----------

Verse:
 Amaj7                           Emaj9
-4---4---4---4---4---4---4---4------4---4---4---4---------4---
-2---2---2---2---2---2---2---2-----4----4---4---4-------4---4-
---2---2---2---2---2---2---2---2--4---4---4---4---4---4-------
----------------------------------------------------4---------
-0---------------0--------------------------------------------
---------------------------------0------------------0---------

 Amaj7                       A6  Emaj9
-4---4---4---4---4---4---4---2------------4-------4-------4---
-2---2---2---2---2---2---2---2------4---4---4---4-------4-----
---2---2---2---2---2---2---2---2---4--4-------4-------4-------
----------------------------------4-----------------4-------4-
-0---------------0--------------------------------------------
---------------------------------0----------0-------0---------

Pre-Chorus:
 Bbm7b5          Amaj7           G#m7no5                         F#m11no5
---------------------------------------------------------------------------------0--
-------5-------5-------5-------5-------0-------0-------0-------0-0-----0-------0-0--
-----6-------6-------6-------6-------4-------4-------4-------4-------2-------2---2--
---6-------6-------6-------6-------4-------4-------4-------4-------2-------2-----2--
------------------------------------------------------------------------------------
-6-------6-------5-------5-------4-------4-------4-------4-------2-------2-------2--

 E        strum E chord.....
-----------------------------
-------0---------------------
-1---1-----------------------
-2-2-------------------------
-----------------------------
-0---------------------------

Chorus:
E (EaddC E6) F#m11no5 (F#m11#5 B11/F# F#m11#5)
Asus2 Asus2/F# Dsus2 B9sus4
E (EaddC E6) F#m11no5 (F#m11#5 B11/F# F#m11#5)
Asus2 B9sus4
 
Outro:
 Amaj7         Emaj9  
-4---4---4---------4--
-2---2---2-------4----
---2---2---2---4------
----------------------
-0--------------------
--------------0-------

Transcribed by,
tsunvun86/chewie.mushroom
Advertisements

Written by tsunvun86

May 28, 2014 at 11:32 pm

%d bloggers like this: