Know Music, Know Life

tsunvun86's Guitar Chords & Tabs

Archive for the ‘Chelsy’ Category

Chelsy – Sixteen Age [Chords]

leave a comment »


 

Chelsy - Sixteen Age

Intro:
C D Em Em (x6)

Verse:
C D Em Em (x4)

Pre-Chorus:
C C D D (x2)

Chorus:
C D Em Em
C D Em A
C D Em Em (x2)

Verse 2:
C D Em Em (x2)

repeat Pre-Chorus

repeat Chorus

Bridge:
C C D D (x2)
D

Chorus 2:
C D Em Em (x3)
C D

Outro:
C D Em Em (x4)
Em

Intro:
----------------------------------------------------------------------------
---------12--10----------------------------12--10---------------------------
-------9--------12-11-12-11b12b11------7/9---------12-11-12-11b12b11--------
-11/12----------------------------12---------------------------------12/14--
----------------------------------------------------------------------------
----------------------------------------------------------------------------

-----------------------------------------------12---------------------------
-----12--10---------------------------------/12-----------------------------
-7/9---------12-11-12-11b12-11----------------------------------------------
-------------------------------12---12/14-----------------------------------
----------------------------------------------------------------------------
----------------------------------------------------------------------------

Transcribed by,
tsunvun86
Advertisements

Written by tsunvun86

April 12, 2012 at 8:54 pm

Posted in Chelsy, Chords & Tabs

Tagged with , , , , , , , , , ,

%d bloggers like this: