Know Music, Know Life

tsunvun86's Guitar Chords & Tabs

Archive for the ‘K-ON!!’ Category

[K-ON!!] HO-KAGO TEA TIME – Tenshi ni Fureta yo! [Chords & Tabs]

with 7 comments


HO-KAGO TEA TIME - Tenshi ni Fureta yo!

F/A - x03211 or x032xx(power chord)
Bb/D - x5333x or x58xxx(power chord)

Intro:
Bb F Gm F Eb
F

Verse:
Bb F D Gm F Eb F F/A
Bb F D Gm F Eb F
Bb

Pre-Chorus:
Eb F Dm7 Gm
Cm Dm7 Eb F F/A

Chorus:
Bb F Gm F
Eb F Dm Gm
Cm F F/A
Bb F D Gm F
Eb F Dm G7
Cm F

Instrumental:
Bb F Gm F Eb
F

repeat Verse

repeat Pre-Chorus

repeat Chorus

Bb

Bridge:
Eb F D Gm F
Eb Bb/D Cm Bb
Cm D

Solo:
Eb
Bb C
C#
Eb F

repeat Chorus

Outro:
Bb F G F Eb
F
Bb



Intro/Instrumental Solo:
-----------------------13--11-10-11-10h11p10-----------------------
----10-11-11/13--11-13-----------------------13-11-10--10-11-13-10-
-10----------------------------------------------------------------
-------------------------------------------------------------------
-------------------------------------------------------------------
-------------------------------------------------------------------

-------------------------------------------------------------------
-------------10-10-------------------------------------------------
-10--10h12---------------------------------------------------------
-------------------------------------------------------------------
-------------------------------------------------------------------
-------------------------------------------------------------------

Lick before Bridge:
-------------------------------------------------------------
-----11-------13-13/15--15-----------------------------------
-------------------------------------------------------------
-/12----12/13----13/15---------------------------------------
-------------------------------------------------------------
-------------------------------------------------------------

Solo:
----------------------------------------------------9h11-9-11-11/13-
-8--10-11~/13-13-----------------------9----------------------------
------------------/10--8-7-8-8/10--12--11b13b11-10------------------
--------------------------------------------------------------------
-----------------------------------10-------------------------------
--------------------------------------------------------------------

-11-------15-15--13-13-x-x-15--15-x-x-17--17-x-x-20--20-------------
--------------------------------------------------------------------
----12/15-15-15--14-14-x-x-15--15-x-x-17--17-x-x--------------------
--------------------------------------------------------------------
--------------------------------------------------------------------
--------------------------------------------------------------------

Outro Solo:
-----------------------13--11-10-11-10h11p10-----------------------
----10-11-11/13--11-13-----------------------13-11-10--10-11-13-10-
-10----------------------------------------------------------------
-------------------------------------------------------------------
-------------------------------------------------------------------
-------------------------------------------------------------------

-------------------------------------------------------------------
----------10---11--------------------------------------------------
-10--12------------------------------------------------------------
-------------------------------------------------------------------
-------------------------------------------------------------------
-------------------------------------------------------------------

Transcribed by,
tsunvun86

Written by tsunvun86

October 26, 2010 at 11:49 pm

[K-ON!!] HO-KAGO TEA TIME – Tenshi ni Fureta yo! TV Size [Chords & Tabs]

with 7 comments


**Click here for the whole song

HO-KAGO TEA TIME - Tenshi ni Fureta yo! TV Size

F/A - x03211 or x032xx(power chord)
Bb/D - x5333x or x58xxx(power chord)

Intro:
Bb F Gm F Eb
F

Verse:
Bb F D Gm F Eb F F/A
Bb F D Gm F Eb F
Bb

Pre-Chorus:
Eb F Dm7 Gm
Cm Dm7 Eb F F/A

Chorus:
Bb F Gm F
Eb F Dm Gm
Cm F F/A
Bb F D Gm F
Eb F Dm G7
Cm F
Bb

Bridge:
Eb F D Gm F
Eb Bb/D Cm Bb
Cm D
F

repeat Chorus

Outro:
Bb F G F Eb
F
Bb

Intro Solo:
-----------------------13--11-10-11-10h11p10-----------------------
----10-11-11/13--11-13-----------------------13-11-10--10-11-13-10-
-10----------------------------------------------------------------
-------------------------------------------------------------------
-------------------------------------------------------------------
-------------------------------------------------------------------

-------------------------------------------------------------------
-------------10-10-------------------------------------------------
-10--10h12---------------------------------------------------------
-------------------------------------------------------------------
-------------------------------------------------------------------
-------------------------------------------------------------------

Lick before Bridge:
-------------------------------------------------------------
-----11-------13-13/15--15-----------------------------------
-------------------------------------------------------------
-/12----12/13----13/15---------------------------------------
-------------------------------------------------------------
-------------------------------------------------------------

Lick at the end of Bridge:
-13-13-x-x-15--15-x-x-17--17-x-x-20--20---------------------
------------------------------------------------------------
-14-14-x-x-15--15-x-x-17--17-x-x----------------------------
------------------------------------------------------------
------------------------------------------------------------
------------------------------------------------------------

Outro Solo:
-----------------------13--11-10-11-10h11p10-----------------------
----10-11-11/13--11-13-----------------------13-11-10--10-11-13-10-
-10----------------------------------------------------------------
-------------------------------------------------------------------
-------------------------------------------------------------------
-------------------------------------------------------------------

-------------------------------------------------------------------
----------10---11--------------------------------------------------
-10--12------------------------------------------------------------
-------------------------------------------------------------------
-------------------------------------------------------------------
-------------------------------------------------------------------

Chords & Tabs by,
tsunvun86

Written by tsunvun86

September 17, 2010 at 12:20 am

[K-ON!!] HO-KAGO TEA TIME – Gohan wa Okazu [Chords & Tabs]

with 4 comments


HO-KAGO TEA TIME - Gohan wa Okazu

Intro:
D     )
A G D } (x2)

Verse:
D A (x2)

Pre-Chorus:
G A F#m Bm
Em E A

Chorus:
G A D (x4)
D
G A D

Instrumental:
D     )
A G D } (x2)

repeat Verse

repeat Pre-Chorus

Chorus 2:
G A D (x4)
D

Bridge:
D (x4)

Solo:
G A (x4)
A

repeat Verse

repeat Pre-Chorus

Instrumental 2:
A

repeat Chorus

Outro:
D     )
A G D } (x4)
D A G A (x2)
D


Intro/Instrumental/Outro Riff:
-----------------------------------------------------------
-----------------------------------------------------------
-11-7-7-7--7-7-7--11--7-7-7--7-7-7--9--9--9--9-11--11-9--7-
-----------------------------------------------------------
-9--5-5-5--5-5-5--9---5-5-5--5-5-5--7--7--7--7-9---9--7--5-
-----------------------------------------------------------


Verse:
-------------------------------------------------
-------------------------------------------------
-7--7-7------7--7-7------9--9-9------------------
--------7-7---------7-7---------7-7--7--7-7--7-7- (x2)
-------------------------------------------------
-------------------------------------------------


Pre-Chorus:
-------------------------------------------------
-10--10-10-10--10--10-10-10-10-10--15--15-15-15--
-------------------------------------------------
-7---7--7--7---7---7--7--7--7--7---12--12-12-12--
-------------------------------------------------
-------------------------------------------------

------------------------------------------5-----7-----9------12-
-10--10-10-10-10-----5----9-----9-------------------------------
--------------11-11--7b9--11b13-11b13--/6---6/7---7/9---9/14----
-7---7--7--7-----12---------------------------------------------
----------------------------------------------------------------
----------------------------------------------------------------


Chorus:
-3--3--5--5--10-10--10--10-10--3--3--5--5/10-10-10--------------
-3--3--5--5--10-10--10--10-10--3--3--5--5/10-10-10--------------
---------------------------------------------------12-10-11-----
------------------------------------------------------------12--
----------------------------------------------------------------
----------------------------------------------------------------

-3--3--5--5/10-10-10--10--10-10-     -10-10--10--10-10-
-3--3--5--5/10-10-10--10--10-10-     -10-10--10--10-10-  
--------------------------------(x2) ------------------(x2)
--------------------------------     ------------------
--------------------------------     ------------------
--------------------------------     ------------------

---------------10-----14--------------------
-8--8--10--10--13b15--17b19-----------------
-7--7--9---9--------------------------------
--------------------------------------------
--------------------------------------------
--------------------------------------------


Chorus 2:
-3--3--5--5--10-10--10--10-10--3--3--5--5/10-10-10--------------
-3--3--5--5--10-10--10--10-10--3--3--5--5/10-10-10--------------
---------------------------------------------------12-10-11-----
------------------------------------------------------------12--
----------------------------------------------------------------
----------------------------------------------------------------

-3--3--5--5/10-10-10--10--10-10--3--3--5--5/10-10-10--10-10-10-10-     
-3--3--5--5/10-10-10--10--10-10--3--3--5--5/10-10-10--10-10-10-10-   
------------------------------------------------------------------
------------------------------------------------------------------
------------------------------------------------------------------     
------------------------------------------------------------------

--------------------------------------------
--------------------------------------------
-7/11-11/14-14/19-19------------------------
--------------------------------------------
-5/9--9/12--12/17-17------------------------
-------------------------------------------- 


Bridge:
---------------------------------------------10-10----------------
-x-x-7--x-7--x-7------------x-x-7--x-7--x-7--------7-7------------
-x-x-7--x-7--x-7------7-----x-x-7--x-7--x-7--------7-7------------
-x-x-7--x-7--x-7------------x-x-7--x-7--x-7-----------------------
------------------8h9---9-----------------------------------------
------------------------------------------------------------------

------------------------------------------------------------------
-x-x-7--x-7--x-7------------x-x-7--x-7--x-7-----------------------
-x-x-7--x-7--x-7------7-----x-x-7--x-7--x-7-----------------------
-x-x-7--x-7--x-7------------x-x-7--x-7--x-7-----------------------
------------------8h9---9-----------------------------------------
------------------------------------------------------------------


Solo:
-------------------------------------------9--10p9------
-7----------7----------7----------7----10----------10---
----7-----7---9--6--------7-----7---9-----------------9-
-------9------------7--------9--------------------------
--------------------------------------------------------
--------------------------------------------------------

------------------------14------14--------------------
-15------15------15---------17------17--------14-17---
-----14------14-----14------------------14h16---------
------------------------------------------------------
------------------------------------------------------
------------------------------------------------------

------------------------------------------------------
-15------15-------------------------------------------
-----14------14--14/16-16-16-16\14-14-14--------------
------------------------------------------------------
------------------------------------------------------
------------------------------------------------------

------------------------------------------------------
-15b17b15b17--17b19b17b19--19b20b19b20--20b22b20b22---
------------------------------------------------------
------------------------------------------------------
------------------------------------------------------
------------------------------------------------------

--------------------------------------------
--------------------------------------------
-6/7-7/8-8/9-9------------------------------
--------------------------------------------
-4/5-5/6-6/7-7------------------------------
--------------------------------------------


Instrumental 2 Lick:
----------------------------------------
----------------------------------------
---------------------------4-6----------
-------------------4-5-6-7-----7--------
-----4---4-5-4-5-7----------------------
-5-7---7--------------------------------


Outro Lick:
----------------------------------------
----------------------------------------
----------------------------------------
---------------------------------------- (x2)
-5---------1-2-3-4-3-2-1---------5------
---2-3-4-5---------------5-4-3-2--------


Chords & Tabs by,
tsunvun86

Written by tsunvun86

September 6, 2010 at 4:31 pm

[K-ON!!] HO-KAGO TEA TIME – NO, Thank You! [Chords & Tabs]

with 13 comments


HO-KAGO TEA TIME - NO, Thank You!

FM7 - 133210
CM7 - x32000
GM7 - 320002
A.H. - Artificial Harmonics/Pinch Harmonics
P.S. - Pitch Shift (Pedal)

Intro:
Em   )
C D  } (x2)

Verse:
Em D A (x4)
Em A (x2)
C G/B
Am Bm C D

Chorus:
C D G Em
C D Em D/F# G Bm
C D Bm Em
Am Bm

Instrumental:
Em   )
C D  } (x2)

repeat Verse

repeat Chorus

Bridge:
FM7
CM7 Bm7
CM7 GM7
C Bm7 Em7
Am Bm C D

Solo:
Em F (x3)  )
Em G F     }  (x3)
Em F (x2)
D G C F

Verse 2:
Em A (x2)
C G/B
Am Bm C D
D

repeat Chorus

Outro:
Em   )
C D  } (x2)

Intro/Instrumental/Outro Solo:
----------------------------------------------------------------
----------------------------------------------------------------
----------------------------------------------------------------
-5-5--7-5-5--9--7-7--10-9--9---12-10-10--7-9--9---5-7-7--4-2--4- (x2)
-7-7--9-7-7--10-9-9--12-10-10--14-12-12--9-10-10--7-9-9--5-3--5-
----------------------------------------------------------------

Verse:
 0:27           0:32
---------------------------------------------------------------
---------------------------------------------------------------
--------------------------------9--9--9--x--9-x-9-9-9-9--------
--6-7-6-7-6------6-7-6-7-6-------------------------------------
---------------------------------------------------------------
--4-5-4-5-4------4-5-4-5-4-------------------------------------

-------------------------------------------------------------------------------
-------------------------------------------------------------------------------
-x-7--7--7--x--2-x-2-2-2-2--9--9--9--x--9-x-9-9-9-9--x-7--7--7--x--2-x-2-2-2-2-
-------------------------------------------------------------------------------
-------------------------------------------------------------------------------
-------------------------------------------------------------------------------

--------------------------------------------------------------------------
----------8-7h8p7--------------------8-7h8p7------------------------------
-9---6------------9-7-6-9---9---6------------9-7-6-9----12---9---7---12---
--------7--------------------------7-----------------7--------------------
-7---4----------------------7---4-----------------------10---7---5---10---
--------------------------------------------------------------------------

---------------------------------------------------------------
---------------------------------------------------------------
-9---11---12---14-14-------------------------------------------
---------------------------------------------------------------
-7---9----10---12-12-------------------------------------------
---------------------------------------------------------------

Verse after Instrumental:
---------------------------------------------------------------
---------------------------------------------------------------
--------------------------------9--9--9--x--9-x-9-9-9-9--------
--6-7-6-7-6------6-7-6-7-6-------------------------------------
---------------------------------------------------------------
--4-5-4-5-4------4-5-4-5-4-------------------------------------

-------------------------------------------------------------------------------
-------------------------------------------------------------------------------
-x-7--7--7--x--2-x-2-2-2-2--9--9--9--x--9-x-9-9-9-9--x-7--7--7--x--2-x-2-2-2-2-
-------------------------------------------------------------------------------
-------------------------------------------------------------------------------
-------------------------------------------------------------------------------

--------------------------------------------------------------------------
----------8-7h8p7--------------------8-7h8p7------------------------------
-9---6------------9-7-6-9---9---6------------9-7-6-9----12---9---7---12---
--------7--------------------------7-----------------7--------------------
-7---4----------------------7---4-----------------------10---7---5---10---
--------------------------------------------------------------------------

------------------------------------------------------------
------------------------------------------------------------
-14-14-----16-16-----17-17-----19-19--19-19-19--------------
-------14--------16--------17-------------------------------
-12--------14--------15--------17-17--17-17-17--------------
------------------------------------------------------------

Bridge:
FM7  CM7      Bm7       CM7     GM7
-0-------------------2----------------2-----7-----------
-1---------0------3----------0----------------7---------
-2-------0------2----------0--------0-------------------
-3-----2-----------------2--------0------/5-------------
-3---3--------2--------3--------------------------------
-1------------------------------3-----------------------

 C               Bm7     Em7
------------------------------7-------------------------
-----1-------3-------3----------------------------------
---0---0---2---2---2---2----7---------------------------
--------------------------------------------------------
-3-------3-------2-------/7-----------------------------
--------------------------------------------------------

Solo:
        A.H.-> P.S.           A.H.          A.H.
--------------------------------------------------------
-/17-17----------------/17-17--------/17-17-------------
--------14--------------------14------------14----------
--------------------------------------------------------
--------------------------------------------------------
--------------------------------------------------------

----------------10--------------8-----------------------
-------10----12---------8----10-------------------------
----11----12----------9---10----------------------------
-12----------------10-----------------------------------
--------------------------------------------------------
--------------------------------------------------------

Verse 2:
--------------------------------------------------------------------------
----------8-7h8p7--------------------8-7h8p7------------------------------
-9---6------------9-7-6-9---9---6------------9-7-6-9----12---9---7---12---
--------7--------------------------7-----------------7--------------------
-7---4----------------------7---4-----------------------10---7---5---10---
--------------------------------------------------------------------------

------------------------------------------------------------
------------------------------------------------------------
-14-14-----16-16-----17-17-----19-19--19-19-19--------------
-------14--------16--------17-------------------------------
-12--------14--------15--------17-17--17-17-17--------------
------------------------------------------------------------

Chords & Tabs by,
tsunvun86

Written by tsunvun86

September 4, 2010 at 10:17 pm

[K-ON!!] HO-KAGO TEA TIME – Pure Pure Heart [Chords & Tabs]

leave a comment »


HO-KAGO TEA TIME - Pure Pure Heart

A/5-(no3) - 56xxxx

Intro:
B (x2)
B Eb G#m E F#

Verse:
B Eb G#m E F# (x2)
Eb G#m C#m F# (x2)
F# G#m A/5-(no3) F#

Chorus:
B Eb G#m F#
Em F# G#m F#
B Eb G#m F#
E F#

Instrumental:
B Eb G#m E F#

repeat Verse

Solo:
E B E B
A G# G F#

Bridge:
E Ebm
E F# B B7
E Ebm G G#
A F# G A

Outro:
B Eb G#m E F# (x2)
B



Solo:

-11-----------14b16-14-11-------14----------------------
-14b16---14---------------14b16----14b16b14p12-14-14----
--------------------------------------------------------
--------------------------------------------------------
--------------------------------------------------------
--------------------------------------------------------

-----------14---14h15p14--10h12p10--7h10p7--------------
-----12-------------------------------------------------
-/12----12----------------------------------------------
--------------------------------------------------------
--------------------------------------------------------
--------------------------------------------------------

----12------14-15-16-------14--16b18--------------------
--------------------------------------------------------
-/13---13/15---15-16---/15------------------------------
--------------------------------------------------------
--------------------------------------------------------
--------------------------------------------------------


Outro Solo:
------------------------------------------------------------------------------
--------------------------------9-9-11-11-11-12-12-12-14-14-14-14/16-16-16-16-
-4-4-4-6-6-6-8-8-8-9-9-9-11-11------------------------------------------------
--------------------------------6-6-8--8--8--9--9--9--11-11-11-11/13-13-13-13-
-2-2-2-4-4-4-6-6-6-7-7-7-9--9-------------------------------------------------
------------------------------------------------------------------------------

-11-----11-----------------------------------------------------------
-14b16--14b16b14-12----12-12-12--------------------------------------
--------------------12----------11--6b8b6p4-6-4-3-4-4h6--------------
--------------------------------------------------------4-6-4--------
---------------------------------------------------------------7-6---
---------------------------------------------------------------------


Chords & Tabs by,
tsunvun86

Written by tsunvun86

September 3, 2010 at 7:16 pm

[K-ON!!] HO-KAGO TEA TIME – Gohan wa Okazu [TV Size] Chords & Tabs

leave a comment »


Full song chords & tabs available here!

HO-KAGO TEA TIME - Gohan wa Okazu

Intro:
D     )
A G D } (x2)

Verse:
D A (x2)

Pre-Chorus:
G A F# Bm
Em E A

Chorus:
G A D (x4)
D
G A D

Instrumental:
D     )
A G D } (x2)
A D G A

repeat Chorus

Instrumental 2:
D     )
A G D } (x4)
D A G A D

Intro/Instrumental Riff:
(This part was originally played on the keyboard)
----------------------------------------------------------
----------------------------------------------------------
-11-7-7-7--7-7-7--11-7-7-7--7-7-7--9--9--9--9-11--11-9--7-
----------------------------------------------------------
-9--5-5-5--5-5-5--9--5-5-5--5-5-5--7--7--7--7-9---9--7--5-
----------------------------------------------------------

Instrumental Lick:
----------------------------------------
----------------------------------------
---------------------------4-6----------
-------------------4-5-6-7-----7--------
-----4---4-5-4-5-7----------------------
-5-7---7--------------------------------

Instrumental 2 Lick:
----------------------------------------
----------------------------------------
----------------------------------------
----------------------------------------
-5---------1-2-3-4-3-2-1---------5------
---2-3-4-5---------------5-4-3-2--------


Chords & Tabs by,
tsunvun86

Written by tsunvun86

September 2, 2010 at 12:28 am

[K-ON!!] S2 YUI Strumming Watashi no Koi wa Hotchi-Kissu [Chords]

with 2 comments


BbM7 - 687766 or x13231
Fsus4 - 1x3311 
C7sus2 - x35333
A7sus4 - x02030
Csus4 - x35563
C/Bb - 6X555X
A7/C# - x42020 or x42223
F/A - X03211
Dm/Eb - x6776x


BbM7 F Fsus4 F
BbM7 C7sus2
F Bb C F

C A7 A7sus4 A7
Dm7 C Bb C
Bb C/Bb A7 D7
Bb Csus4 C

F C A7/C# Dm Dm/Eb
Gm7 F/A Bb C


Chords by,
tsunvun86

Written by tsunvun86

September 1, 2010 at 3:07 pm

%d bloggers like this: