Know Music, Know Life

tsunvun86's Guitar Chords & Tabs

Archive for the ‘ROOKiEZ is PUNK’D’ Category

ROOKiEZ is PUNK’D – Song for… [Chords & Tabs]

with one comment


Kind of incomplete.. Oh well… Forgive me OTL

 
ROOKiES is PUNK'D - Song for...

Intro:
D D
D F#m Bm G A
D F#m F# Bm
D F#m Bm G A
D F#m F# Bm G A

Verse 1:
D F#m Bm G A
D F#m F# Bm G A

Chorus 1:
D D G G
Bm A G A

Verse 2:
D F#m Bm G A
D F#m F# Bm G A
D F#m G G

Pre-Chorus:
Em F#m G A

Chorus 2:
D D G G  )
Bm A G A } (x2)

Bridge:
G A D D (x2)
G A Bm A G F#m Em
G A

repeat Chorus 2

G

Outro:
D F#m Bm G A
D F#m F# Bm G A
D

Intro:
 Dsus2
---------0---------
-----3-----3---3---
---2---2-----2---2- (x9)
-0-----------------
-------------------
-------------------

(repeat this part at Outro)
-------------------------------------------------
-------------------------------------------------
-7-7-7-7-7-7-7-7-7-7/9-9\7-7-7/11-11-11-11\7-7-7-
------------------------------------------------- (x4)
-5-5-5-5-5-5-5-5-5-5/7-7\5-7-5/9--9--9--9\5--5-5-
-------------------------------------------------

Verse 1/Verse 2:

-------5-----------------5-------      -------5-----------------5-
---5------5----------------5-----      ---5------5----------------
-----7-------7-----6h7-------7---      -----7-------7-----6h7-----
-7---------------7-----7-------7- (x3) -7---------------7-----7---
---------------------------------      ---------------------------
---------------------------------      ---------------------------

Chorus 1:
-------------------------------------------------
-------------------------------------------------
-7-7-7-7-7-7-7-7-7-7/9-9\7-7-7/11-11-11-11\7-7-7-
------------------------------------------------- (x2)
-5-5-5-5-5-5-5-5-5-5/7-7\5-7-5/9--9--9--9\5--5-5-
-------------------------------------------------

-------------------------------------------------------------------------------------
-------------------------------------------------------------------------------------
-/14-14-14-14-x-x-14--12-12-12-11-11-12-12-/14-14-14-14-x-x-14--12-12-12-11-11-12-12-
-------------------------------------------------------------------------------------
-/12-12-12-12-x-x-12--10-10-10-9--9--10-10-/12-12-12-12-x-x-12--10-10-10-9--9--10-10-
-------------------------------------------------------------------------------------

-----------------------
-----------------------
-11~\7-7---7-6--7--7/9-
-----------------------
-9~\5--5---5-4--5--5/7-
-----------------------

Chorus 2:
-------------------------------------------------
-------------------------------------------------
-7-7-7-7-7-7-7-7-7-7/9-9\7-7-7/11-11-11-11\7-7-7-
------------------------------------------------- (x2)
-5-5-5-5-5-5-5-5-5-5/7-7\5-7-5/9--9--9--9\5--5-5-
-------------------------------------------------

-------------------------------------------------------------------------------------
-------------------------------------------------------------------------------------
-/14-14-14-14-x-x-14--12-12-12-11-11-12-12-/14-14-14-14-x-x-14--12-12-12-11-11-12-12-
-------------------------------------------------------------------------------------
-/12-12-12-12-x-x-12--10-10-10-9--9--10-10-/12-12-12-12-x-x-12--10-10-10-9--9--10-10-
-------------------------------------------------------------------------------------

-----------------------
-----------------------
-11~\7-7---7-6--7--7/9-
-----------------------
-9~\5--5---5-4--5--5/7-
-----------------------

-------------------------------------------------
-------------------------------------------------
-7-7-7-7-7-7-7-7-7-7/9-9\7-7-7/11-11-11-11\7-7-7-
------------------------------------------------- (x2)
-5-5-5-5-5-5-5-5-5-5/7-7\5-7-5/9--9--9--9\5--5-5-
-------------------------------------------------

-------------------------------------------------------------------------------------
-------------------------------------------------------------------------------------
-/14-14-14-14-x-x-14--12-12-12-11-11-12-12-/14-14-14-14-x-x-14--12-12-12-11-11-12-12-
-------------------------------------------------------------------------------------
-/12-12-12-12-x-x-12--10-10-10-9--9--10-10-/12-12-12-12-x-x-12--10-10-10-9--9--10-10-
-------------------------------------------------------------------------------------

-----------------------
-----------------------
-11~\7-7--7/9----14----
-----------------------
-9~\5--5--5/7----12----
-----------------------

Transcribed by,
tsunvun86

Written by tsunvun86

October 22, 2011 at 9:27 pm

ROOKiEZ is PUNK’D – Complication [Chords & Tabs]

with 4 comments


Intro solo is not from the original song. I tabbed it from a youtube cover. Unfortunately that video has been removed so the video here is my attempt at it when I transcribed it. It is not as good as the original and the audio is pretty much crap but hope at least it could be a guideline. I might make a whole cover some time fingers crossed.

ROOKiEZ is PUNK'D - Complication

C#m7 - x46454
Bsus2 - x24422
Asus2- x02200
F#5 - 24xxxx
G#5 - 46xxxx
A5 - x02xxx / 57xxxx
E5 - 02xxxx
B5 - x24xxx
C#5 - x46xxx

Intro:

   C#m7    Bsus2   A     E               C#m7    Bsus2 A
e|---------------------------------     -----------------------------
B|-----5-------2-------------------     -----5-------2---------------
G|-------4-------4-----2-----------     -------4---------------------
D|---6-------4-------2---------2---(x3) ---6-------4---2-2-2---------
A|-4-------2-------0-----2---2---2-     -4-------2-----0-0-0---------
E|-------------------------0-------     -----------------------------

   A         B              E               C#m             A
e|-1/19--19--19-17-16-17-16--------------------------------19-----
B|--------------------------19--17-16-17-16-------16-17-16--------
G|------------------------------------------18-18-----------------
D|----------------------------------------------------------------
A|----------------------------------------------------------------
E|----------------------------------------------------------------

  B            C#m                           A
e|-19b21-19-17----------------17-------------------------------------
B|-------------16--17--16--17----------------16h17p16-16-------------
G|-------------------------------------16-18-------------18p16-------
D|---------------------------------/18-------------------------16p16-
A|-------------------------------------------------------------------
E|-------------------------------------------------------------------
            B                              E
e|----------------------------------------------------------------------
B|----------16h17p16-16-----------------------16h17p16-16---------------
G|----16-18-------------18p16-----------16-18-------------18p16---------
D|-18-------------------------18p16--18-------------------------18p16---
A|----------------------------------------------------------------------
E|----------------------------------------------------------------------

   C#                    A                          B                  E
e|-----------------------------------------------------------------------
B|-----------------------17-16----17-16----17-16----17-16----------------
G|-----------------------------18-------18-------18-------18-16----------
D|-18-16-14-16-14-16-18-----------------------------------------18-16-14-
A|-----------------------------------------------------------------------
E|-----------------------------------------------------------------------

Verse:
   Asus2       B           C#m7
e|---------------------------------------------------
B|-------0-----------4-----------5-----------5p4-----
G|-----2---2-2-----4---4-4-----4---4-4-----4-----4---
A|---2-----------4-----------6-----------6---------6-
A|-0-----------2-----------4-----------4-------------
E|---------------------------------------------------

   Asus2       B           C#m7
e|-------------------------------------7-----4-------
B|-------0-----------4-----------5-------5-----5---5-
G|-----2---2-2-----4---4-4-----4---4-4-----4-----4---
A|---2-----------4-----------6-----------------------
A|-0-----------2-----------4-------------------------
E|---------------------------------------------------

   Asus2       B           C#m7
e|---------------------------------------------------
B|-------0-----------4-----------5-----------5p4-----
G|-----2---2-2-----4---4-4-----4---4-4-----4-----4---
A|---2-----------4-----------6-----------6---------6-
A|-0-----------2-----------4-----------4-------------
E|---------------------------------------------------

   Asus2       B           C#m7
e|-------------------------------------7-----4-------
B|-------0-----------4-----------5-------5-----5---5-
G|-----2---2-2-----4---4-4-----4---4-4-----4-----4---
A|---2-----------4-----------6-----------------------
A|-0-----------2-----------4-------------------------
E|---------------------------------------------------

Pre-Chorus:
F#5 G#5 A5 E5
F#5 G#5 A5 B5

Chorus:
A5 B5 E5 C#5
A5 B5 C#5
A5 B5 E5 C#5
A5 B5 E5

Verse:
   Asus2       B           C#m7
e|---------------------------------------------------
B|-------0-----------4-----------5-----------5p4-----
G|-----2---2-2-----4---4-4-----4---4-4-----4-----4---
A|---2-----------4-----------6-----------6---------6-
A|-0-----------2-----------4-----------4-------------
E|---------------------------------------------------

   Asus2       B           C#m7
e|-------------------------------------7-----4-------
B|-------0-----------4-----------5-------5-----5---5-
G|-----2---2-2-----4---4-4-----4---4-4-----4-----4---
A|---2-----------4-----------6-----------------------
A|-0-----------2-----------4-------------------------
E|---------------------------------------------------

   Asus2       B           C#m7
e|---------------------------------------------------
B|-------0-----------4-----------5-----------5p4-----
G|-----2---2-2-----4---4-4-----4---4-4-----4-----4---
A|---2-----------4-----------6-----------6---------6-
A|-0-----------2-----------4-----------4-------------
E|---------------------------------------------------

   Asus2       B           C#m7
e|-------------------------------------4-------------
B|-------0-----------4-----------5-----5-------------
G|-----2---2-2-----4---4-4-----4---4-4-4-------------
A|---2-----------4-----------6-----------------------
A|-0-----------2-----------4-------------------------
E|---------------------------------------------------

repeat Pre-Chorus

Chorus 2:
A5 B5 E5 C#5
A5 B5 C#5
A5 B5 E5 C#5 (x2)

Solo:

   A5      B5      G#5      C#5
e|----------------------------------------------------------
B|-12------12------12---------------------------------------
G|----11-9----11-9----11-9--8-9---9-11--9--9----------------
D|------------------------------9---------------------------
A|----------------------------------------------------------
E|----------------------------------------------------------

   A5                        B5                        C#5
e|---------------------------------------9------11-----12----
B|--------9---10---9---------10b12-10-9--12b14--14b16--15b17-
G|-9-11-9---9----9---9-9-11----------------------------------
D|-----------------------------------------------------------
A|-----------------------------------------------------------
E|-----------------------------------------------------------

Chorus 3:

e|------------------0---0---0--
B|-2---4---4---5----0---4---5--
G|-2---2---4---4----2---2---4--
D|-2---2---4-------------------
A|-----------------------------
E|-----------------------------

repeat Chorus 2

repeat Chorus

Outro:

   C#m7    Bsus2   A     E               C#m7    Bsus2 A
e|---------------------------------     -----------------------------
B|-----5-------2-------------------     -----5-------2---------------
G|-------4-------4-----2-----------     -------4---------------------
D|---6-------4-------2---------2---(x3) ---6-------4---2-2-2---------
A|-4-------2-------0-----2---2---2-     -4-------2-----0-0-0---------
E|-------------------------0-------     -----------------------------

Chords & Tabs by,
tsunvun86

Written by tsunvun86

September 9, 2010 at 10:48 pm

%d bloggers like this: