Know Music, Know Life

tsunvun86's Guitar Chords & Tabs

Archive for the ‘Guitar Cover’ Category

Utada Hikaru – DEEP RIVER (Guitar Tabs)

leave a comment »


After finding out about Hikki’s marriage(1, 2) I decided today is to be Utada Hikaru appreciation day to finally once and for all give up on marrying Hikki myself hahaha. Switched my music player to her playlist and stopped at DEEP RIVER. From there I just kept looping it. I dug out my old handwritten tabs from more than 5 years ago and grabbed my guitar. Below is a typed up and amended version. Hikki I wish you all the happiness in the world.

Utada Hikaru - DEEP RIVER

Bmadd11 - x24430    
Gadd9 - 3x020x 
Asus2 - x02200         
Asus2/F# - 202200
Emadd9 - 024000
Dmaj7/F# - 24023x
F#7sus4 - 242422
Gmaj9 - 3x0202
Dsus2 - x0230
Asus2/C# - x42200

#Capo at first fret

Intro:
 Bmadd11        Gadd9     Asus2          Asus2/F#  Emadd9         Dmaj7/F# 
-------0------------------------0--------------0--------------------------
----------3-----------0---------0--------------0---------0--------------3-
-----4------4-------2---------2----2---------2-----------0--------------2-
---4--------------0---------2--------2-----2-----------4----4---------0---
-2------------------------0--------------------------2--------2-----4-----
----------------3------------------------2---------0--------------2-------

 Gadd9            F#7sus4
---------------------------2-
-------0------0---------2----
-----2------2-----4---4------
---0------0-------2-2--------
------------------4----------
-3----------------2----------

Verse 1:
 Gmaj9                   Asus2                     Emadd9      Dmaj7/F#
-------2-----------2-----------0-----------0---------------------------
-------0-----------0-----------0-----------0-------------0-----------0-
-----2-----------2-----------2-----------2---------------0-----------0-
---0-------0---0-------0---2-------2---2---------------4-----------4---
-------------------------0-----------0---------------2-------2---2-----
-3-----------3---------------------------------3-2-0-----------0-------

   Dsus2
---------0-------------0------
-------3----3--------3----3---
-----2--------2----2--------2-
---0-------------0------------
-2----------------------------
------------------------------

 Gmaj9                   Asus2                     Emadd9
-------2-----------2-----------0-----------0---------------------------
-------0-----------0-----------0-----------0-------------0-----------0-
-----2-----------2-----------2-----------2---------------0-----------0-
---0-------0---0-----------2-------2---2---------------4-----------4---
-------------------------0-----------0---------------2-------2---2-----
-3-----------3---------3-----------------------3-2-0-----------0-------

 Dsus2          Asus2/C#
-------0--------------0-
-----3----3-----------0-
---2--------2-------2---
-0----------------2-----
----------------4-------
------------------------

Chorus:
 Bmadd11        Gadd9     Asus2          Asus2/F#  Emadd9          Dmaj7/F#
-------0------------------------0--------------0---------------------------
----------3-----------0---------0--0-----------0-------------------------3-
-----4------4---2---2---------2------2-------2-----------0-----0---------2-
---4------------0-0---------2----------2---2-----------4-----4---------0---
-2------------------------0--------------------------2-----2---------4-----
----------------3------------------------2---------0---------------2-------

 Gadd9           F#7sus4
--------------------------2--
-------0-----0---------2-----
-----2-----2---------4-------
---0-----0------------------- (x2)
-------------------4---------
-3---------------2-----------

Instrumental:
 Bmadd11        Gadd9          Asus2          Asus2/F#  Emadd9         Dmaj7/F# 
-------------------------------------------------------------------------------
-----3------3--------0----0----------0----0---------0------------------------3-
-------4------------2---2----------2--------2-----2------------0-----0-------2-
---4------4---4---0---------0----2------2-------2------------4-----4-------0---
-2-----------------------------0---------------------------2-------------4-----
----------------3-----------------------------2---------0--------------2-------

   Gadd9          F#7sus4
-----------------------
---------0------0------
-------2------2---4--4-
-----0------0-----2--2-
------------------4--4-
-2-3--------------2--2-

Verse 3:
 Gmaj9                  Asus2                       Emadd9
-------2-----------2----------0-------------0---------------------------
-------0-----------0----------0-------------0-------------0-----------0-
-----2-----------2----------2-------------2---------------0-----------0-
---0-------0---0----------2-------0h2---2---------------4-----------4---
------------------------0-------------0---------------2-------2---2-----
-3-----------3----------------------------------3-2-0-----------0-------

   Dsus2        Asus2/C#    
-------0--------------0------
-----3----3-----------0------
---2--------2-------2----2---
-0----------------2--------2-
----------------4------------
-----------------------------

repeat Chorus (x2)

Outro:
 Bmadd11        Gadd9          Asus2          Asus2/F#  Emadd9           Dmaj7/F# 
-------------------------------------0-------------0----------------------------
-----3------3--------0----0----------0-------------0----------0---------------3-
-------4------------2---2----------2----2--------2------------0---------------2-
---4------4---4---0---------0----2--------2----2------------4-----4---------0---
-2-----------------------------0--------------------------2---------2-----4-----
----------------3----------------------------2---------0----------------2-------

 Gadd9          F#7sus4
------------------
-------0----0-----
-----2----------4-
---0------0-----2-
----------------4-
-3--------------2-

repeat Outro until fade....


Transcribed by,
tsunvun86

Written by tsunvun86

February 4, 2014 at 10:54 pm

GLAY Solo Covers

with one comment


1. MISERY (hide TRIBUTE)

2. Kokodewanai Dokokae ここではない、どこかへ

3. BELOVED

Written by tsunvun86

August 31, 2013 at 11:20 pm

So, I picked up the electric guitar again recently :D

leave a comment »


Written by tsunvun86

April 13, 2013 at 8:45 pm

Posted in Guitar Cover

Tagged with , , , , , , , ,

miwa – Napa (intro) Tabs

with one comment


miwa - Napa (intro)

*Capo at 3rd fret

----------------------------------
-3----3--------3-3-----3----3---3-
-0--0-2----0h2---2-----2----2---2-
---------0----------2-----0---0---
-----------------0-----2----------
-3----2---------------------------

--------------------------
-3----3--------3-2--2--3--
-0--0-2----0h2---2--2--2--
---------0----------------
-----------------0-----2--
-3----2-------------------

Transcribed by,
tsunvun86

Written by tsunvun86

March 18, 2013 at 7:07 pm

Posted in Chords & Tabs, Guitar Cover, miwa

Tagged with , , , ,

ONE OK ROCK – The Beginning [Chords]

with 4 comments


ONE OK ROCK - The Beginning

E/G# - 476454 OR 476xxx(POWER) OR 47xxxx(POWER)
D/F# - 254232 OR 254xxx(POWER) OR 25xxxx(POWER)

Intro:
Am F C G (x5)
F F G G

Verse:
Am F C G (x2)

Pre-Chorus:
F G F E

Chorus:
Am F C G
Am F C G E/G#

Instrumental:
Am F C G (x3)
F F G G

repeat Verse

repeat Pre-Chorus

Chorus 2:
Am F C G
Am F C G E/G# (x3)

Solo:
F E Am (x3)
G
F E Am (x3)
E

Chorus 3:
Am F C G (x3)
Am F C G D/F#
F G C Am G
F G E F

Transcribed by,
tsunvun86

Written by tsunvun86

August 27, 2012 at 9:57 pm

YUI – Cooking [Chords]

with one comment


YUI - Cooking

Intro:
F G C (x2)

Verse:
F G C (x2)
F G Am C
F G C

Pre-Chorus:
Em F (x2)
Em F G G

Chorus:
F G Em Am
F G Am C
F G Em Am
F G C

Instrumental:
F G C (x2)

repeat Verse

repeat Pre-Chorus

repeat Chorus

Bridge:
Dm Em F Fm
Am G F G 
Am G F F G

repeat Chorus (x2)

F G C

Outro:
F G C (x2)
F G Am C
F G C




Transcribed by,
tsunvun86

Written by tsunvun86

October 30, 2011 at 2:57 pm

Posted in Guitar Cover, YUI

Tagged with , , , , , , , ,

SCANDAL – BURN [Chords & Tabs]

with 2 comments


 
SCANDAL - BURN


Intro:
Bb C Dm C 
Bb C Dm (x3)

Verse:
Bb C (x2)
Bb Dm
Bb Am
Dm C

Chorus:
Bb C Dm (x3)
Am
Bb C Dm (x3)
Bb C

Instrumental:
Bb C Dm C

Verse 2:
Bb C
Bb Dm
Bb Am
Dm C

repeat Chorus

Solo:
Bb C Dm (x2)
Bb C Am Dm
Bb C

repeat Chorus

Outro:
Bb Eb C# F# G#
Bb Eb C# F# F
Bb Eb C# F# G# (x3)
Bb Eb C# F#
Bb



Intro:
----------------------------------5--x-5-x-x-5-x-x-3--
----------------------------------6--x-6-x-x-6-x-x-5--
-------3--x-3-x-x-5-x-x-----------7--x-7-x-x-7-x-x-5--
-------3--x-3-x-x-5-x-x-3h5-----5-7--x-7-x-x-7-x-x-5--  (x2)
-1-3/5-1--x-1-x-x-3-x-x-----3/5---5--x-5-x-x-5-x-x-3--
------------------------------------------------------

-8--6-5-6-5----------------8--6-5-6-5-----------------
-10-8-6-8-6--6-5--6/8--6---10-8-6-8-6--6-5--6/8--8/10-
-------------7-5--7/9--7---------------7-5--7/9--9/10-
------------------------------------------------------
------------------------------------------------------
------------------------------------------------------

Solo:
-----------------------------------------------------------------------------------
-----------/13--13--11-10------------------------10--------------------------------
-/7-9-10-7----------------12--12b14-12-10-----10----10/12--12--12-10-9-9--9b109-7--
-------------------------------------------12--------------------------------------
-----------------------------------------------------------------------------------
-----------------------------------------------------------------------------------

-----------------------------------------------10------10------10--------12-----12-
-------8/10-8----------8-10b11--10-8-----------------------------------------------
-----7---------------9---------------10h12-10------10------10------10/12-----12----
-7-8------------8-10---------------------------------------------------------------
-----------------------------------------------------------------------------------
-----------------------------------------------------------------------------------

----12-----12-----12-------20-----20-----20----------------------------------------
-----------------------/17-----17-----17-------------------------------------------
-12-----12-----12------------------------------------------------------------------
-----------------------------------------------------------------------------------
-----------------------------------------------------------------------------------
-----------------------------------------------------------------------------------



Transcribed by,
tsunvun86

Written by tsunvun86

August 20, 2011 at 1:48 am

%d bloggers like this: