Know Music, Know Life

tsunvun86's Guitar Chords & Tabs

Archive for the ‘Stereopony’ Category

Stereopony – Chiisana Mahou [Chords & Tabs]

with one comment


Stereopony - Chiisana Mahou

Emaj7 - 022444 OR X79897

Intro:
B G#m Emaj7 Ebm C#m E F# (x2)

Verse:
B G#m Emaj7 Ebm C#m F# (x2)

Pre-Chorus:
Emaj7 C#m Ebm G#m F#

Chorus:
Emaj7 C#m Ebm G#m
C#m F# B B7
Emaj7 C#m Ebm G#m
C#m C#m Ebm E F#

Instrumental:
B G#m Emaj7 Ebm C#m E F#

repeat Verse

repeat Pre-Chorus

repeat Chorus

Bridge:
B B Ebm E E E F#

Solo:
B Ebm F# G#m )
E F# G#m     } (x3)
B Ebm F# G#m
G A

Chorus 2:
Emaj7 C#m Ebm G#m
C#m F# B B7
Emaj7 C#m Ebm G#m
C#m C#m Ebm E F# (x2)

Outro:
B G#m E Ebm C#m E F#
E Ebm C#m F# B

Solo:
---x-6-----------------------x-------x-x-x-x-------
-4-x-7-----------------------x-------x-x-x-x-------
-4-x-8---------4---4---4-6---x-------x-x-x-x-11-11-
-4-x-8-4-6--/6-4-6-4-6-4-6-2-x-4-4-6-x-x-x-x------- (x3)
---x-6-4-6--/6---6---6-----2-x-4-4-6-x-x-x-x-9--9--
---x---2-4-----------------0-x-2-2-4-x-x-x-x-------

---x-6---------------------
-4-x-7---------------------
-4-x-8---------4---4---4-6- --> G A (strum)
-4-x-8-4-6--/6-4-6-4-6-4-6-
---x-6-4-6--/6---6---6-----
---x---2-4-----------------

Transcribed by,
tsunvun86 @ Very Good Days! Stereopony Fansite

Written by tsunvun86

November 20, 2010 at 11:28 am

Stereopony – Namida no Mukou~AIMI Acoustic Version~ [Chords & Tabs]

with one comment


Stereo Pony - Namida no Mukou ~AIMI Acoustic Version~

Intro:
F# G# Fm Bbm
Ebm B
Bbm F# G#
Bbm F# F

Verse:
Bbm F# G# (x3)
F# G# Fm Bbm
Ebm B F F

Chorus:
F# G# Fm Bbm
Ebm B
F# F
F# G# Fm Bbm
Ebm B

Instrumental:
Bbm F# G#
Bbm F# F

repeat Verse

Chorus 2:
F# G# Fm Bbm
Ebm B
F# F
F# G#

Solo:
Ebm B F F

Bridge:
Ebm F Bbm Bbm (x2)
Ebm B F F

repeat Chorus

Outro:
Bbm F# G#
Bbm F# F
Bbm F# G#
Bbm F# F
F#


Intro/Instrumental Solo:
-----------------------------------------------------------
---------------------------------------------------------6-
-5-6-5h6p5---6/8--5--6----5-6-5h6p5---6/8--5--6--5h6p5-----
-----------6------------------------6------------------6---
-----------------------------------------------------------
-----------------------------------------------------------

Solo:
-----------------------------------------------------------
-/7--6h7p6--------------------------------8----------10----
-----------6-----------------------------------------------
-------------6--6h8--------------------/8---8--8/10-----10-
---------------------9--8h9p8------------------------------
------------------------------9-9/11-----------------------

----------------------------------------------------
-11-----11--11/13--11/13----------------------------
----------------------------------------------------
-----11-----11/13--11/13----------------------------
----------------------------------------------------
----------------------------------------------------

Outro Solo:
-----------------------------------------------------------
---------------------------------------------------------6-
-5-6-5h6p5---6/8--5--6----5-6-5h6p5---6/8--5--6--5h6p5----- (x2)
-----------6------------------------6------------------6---
-----------------------------------------------------------
-----------------------------------------------------------



Chords & Tabs by,
tsunvun86

Written by tsunvun86

September 10, 2010 at 10:10 pm

%d bloggers like this: