Know Music, Know Life

tsunvun86's Guitar Chords & Tabs

Archive for the ‘FLOWER FLOWER’ Category

FLOWER FLOWER – コーヒー Coffee (Guitar Chords)

leave a comment »


FLOWER FLOWER - Coffee

**Capo at 1st fret

Intro:
Dsus2 Asus2 E F#m (x8)

Verse:
Dsus2 Asus2 E F#m (x4)

Instrumental:
Dsus2 Asus2 E F#m (x2)

repeat Verse

Pre-Chorus:
E F#m Dsus2 Asus2
E F#m Dsus2 E
E

Chorus:
Dsus2 Asus2 E F#m (x3)

Instrumental 2:
Dsus2 Asus2 E F#m (x4)

repeat Verse (x2)

repeat Pre-Chorus

Chorus 2:
Dsus2 Asus2 E F#m (x6)

Outro:
Dsus2 Asus2 E F#m (x4)


Transcribed by,
tsunvun86

Written by tsunvun86

April 3, 2013 at 8:07 pm

FLOWER FLOWER – 愛の歌 Ai no Uta (Guitar Chords & Tabs)

with one comment



FLOWER FLOWER - 愛の歌 Ai no Uta

**Capo at 2nd fret

Intro:
Dsus2 E Asus2 (x2)
Dsus2 E C#m F#m
Dsus2 E Asus2 Asus2 Asus2 Asus2

Verse:
Dsus2 E C#m F#m )
Dsus2 E Asus2   } (x4)

Pre-Chorus:
C#m F#m
Bm E
C#m F#m
Bm Bm E E

Chorus:
Dsus2 E Asus2
Bm E Asus2
Dsus2 E C#m F#m
Dsus2 E Asus2
Asus2

Instrumental:
Dsus2 E Asus2
Bm E Asus2
Dsus2 E C#m F#m
Dsus2 E Asus2
Asus2 (x2)

repeat Verse

repeat Pre-Chorus

repeat Chorus (x2)

Bridge:
F#m E
Dsus2 Asus2
F#m E
Dsus2 (E x8)

repeat Chorus

Chorus 2:
Dsus2 E Asus2
Bm C#7 F#m
Dsus2 E C#m F#m
Dsus2 E Asus2
Asus2 (x3)

Outro:
Dsus2 E Asus2
Bm E Asus2
Dsus2 E C#m F#m
Dsus2 E Asus2
Asus2 (x8)
-----------------------------------------------------------------------------------------

Intro:
 Dsus2 E     Asus2       Dsus2 E     Asus2       Dsus2 E     C#m   F#m
-------------------------------------------------------------------------
-3---0-------------0-----3---0-------------0-----3---0-------5-----2-----
---2-------1-----2---2-----2-------1-----2---2-----2-------0-6-----2-----
-0-------2---2-2-------0-0-------2---2-2-------0-0-------2-----6-5---4-5-
-------------0-----------------------0-----------------------4-----------
-------0-----------------------0-----------------------0-----------2-----

 Dsus2 E     Asus2       Asus2       Asus2       Asus2
-------------------------------------------0-----0--
-3---0-------------0-----------0-----0---0---0---0--
---2-------1-----2---2-------2---2-----2-------2-2--
-0-------2-----2-------2---2-------2-------------2--
-------------0-----------0-----------0-----------0--
-------0--------------------------------------------

Verse:
 Dsus2 E     C#m   F#m    Dsus2 E     Asus2
--------------------------------------------------
-3---0-------5-----2------3---0-------------0-----
---2-------0-6-----2--------2-------1-2---2---2--- (x4)
-0-------2-----6-5---4-5--0-------2-----2-------0-
-------------4------------------------0-----------
-------0-----------2------------0-----------------

Pre-Chorus
 C#m         F#m         Bm          E           C#m         F#m
--------------------------------------------------------------------------
-5-----5-----2-----2-----3-----3-----0-----0-----5-----5-----2-----2------
-6---6---6---2---2---2---4---4---4---1---1---1---6---6---6---2---2---2----
---6-------6---4-------4---4-------4---2-------0---6-------6---4-------4--
-4-----------------------2-----------------------4------------------------
-------------2-----------------------0-----------------------2------------

 Bm         Bm          E           E
------------------------------------0-
-3-----3----3-----3-----0-----0-----0-
-4---4----4-----4---4---1---1---1---1-
---4----------4-------4---2-------2-2-
-2----------2-----------------------2-
------------------------0-----------0-

Chorus:
 Dsus2 E     Asus2       Bm    E     Asus2       Dsus2 E     C#m   F#m
-------------------------------------------------------------------------
-3---0-------------0-----3-----------------0-----3---0-------5-----2-----
---2-------1-2---2---2---4---4-----1-2---2---2-----2-------0-6-----2-----
-0-------2-----2-------0---4-----2-----2-------0-0-------2-----6-5---4-5-
-------------0-----------2-----------0-----------------------4-----------
-------0-----------------------0-----------------------0-----------2-----

 Dsus2 E     Asus2       Asus2
-------------------------0-----
-3---0-------------0-----0-----
---2-------1-2---2---2---2-----
-0-------2-----2-------2-2-----
-------------0-----------0-----
-------0-----------------------

Instrumental:
 Dsus2 E     Asus2       Bm    E     Asus2       Dsus2 E     C#m   F#m
-------------------------------------------------------------------------
-3---0-------------0-----3-----------------0-----3---0-------5-----2-----
---2-------1-2---2---2---4---4-----1-2---2---2-----2-------0-6-----2-----
-0-------2-----2-------0---4-----2-----2-------0-0-------2-----6-5---4-5-
-------------0-----------2-----------0-----------------------4-----------
-------0-----------------------0-----------------------0-----------2-----

 Dsus2 E     Asus2       Asus2       Asus2       Asus2
-------------------------------------0-----0-----0--
-3---0-------------0-----------0---------0---0---0--
---2-------1-----2---2-------2---2-----2-------2-2--
-0-------2-----2-------2---2-------2-------------2--
-------------0-----------0-----------0-----------0--
-------0--------------------------------------------

repeat Verse

repeat Pre-Chorus

repeat Chorus (x2)

Bridge:
F#m E
Dsus2 Asus2
F#m E
Dsus2 (E x8)

repeat Chorus

Chorus 2:
Dsus2 E Asus2
Bm C#7 F#m
Dsus2 E C#m F#m
Dsus2 E Asus2
Asus2 (x3)

Outro:
Dsus2 E Asus2
Bm E Asus2
Dsus2 E C#m F#m
Dsus2 E Asus2
Asus2 (x8)


#############################################################################################

**Without capo

Intro:
Esus2 F# Bsus2 (x2)
Esus2 F# Ebm G#m
Esus2 F# Bsus2 Bsus2 Bsus2 Bsus2

Verse:
Esus2 F# Ebm G#m )
Esus2 F# Bsus2   } (x4)

Pre-Chorus:
Ebm G#m
C#m F#
Ebm G#m
C#m C#m F# F#

Chorus:
Esus2 F# Bsus2
C#m F# Bsus2
Esus2 F# Ebm G#m
Esus2 F# Bsus2
Bsus2

Instrumental:
Esus2 F# Bsus2
C#m F# Bsus2
Esus2 F# Ebm G#m
Esus2 F# Bsus2
Bsus2 (x2)

repeat Verse

repeat Pre-Chorus

repeat Chorus (x2)

Bridge:
G#m F#
Esus2 Bsus2
G#m F#
Esus2 (F# x8)

repeat Chorus

Chorus 2:
Esus2 F# Bsus2
C#m Eb7 G#m
Esus2 F# Ebm G#m
Esus2 F# Bsus2
Bsus2 (x3)

Outro:
Esus2 F# Bsus2
C#m F# Bsus2
Esus2 F# Ebm G#m
Esus2 F# Bsus2
Bsus2 (x8)


Transcribed by,
tsunvun86

Written by tsunvun86

April 3, 2013 at 7:44 pm

FLOWER FLOWER – 宝物 Takaramono (Guitar Tabs)

leave a comment »


The audio above is a COVER of an original song made by FLOWER FLOWER.
It was never our intention to plagiarize YUI’s song or damage in any way her current works. We just decided we wanted to do a tribute of this song, because of its beautiful melody and meaningful lyrics. We certainly hope they will release this song officially in the future and we beg you to support YUI’s new stage by purchasing her music when the time comes.

Vocal: **
Guitar: tsunvun86 (Oz)
Keyboard: pmmonkey (Malaysia)
Bass: Jun (Philippines)
Mix and programming: Kikino! (Chile)

FLOWER FLOWER - Takaramono

Dsus2 - xx0230
Bm7 - x24232
Bm7/A - x04232
F#7 - 242322
s - slap strings

Intro:
 Dsus2       s  G     Dsus2    Bm7   Bm7/A s  G     Dsus2
---0---------x-------------------0---------x---------------------
-3---3-3--3--x--3-----3----3---3---3-3--3--x--3-----3------------
-2-----2--2--x----0-2-2----2---2-----2--2--x----0-2-2-----2------ (x2)
-0-----2--2--x--------0--4-----------------x--------0---4---4----
-------------x-------------4---2-----0--0--x---------------------
-------------x--3--------------------------x--3------------------

Verse:
 Dsus2       s  G     Dsus2    Bm7   Bm7/A s  G     Dsus2
---0---------x-------------------0---------x---------------------
-3---3-3--3--x--3-----3----3---3---3-3--3--x--3-----3------------
-2-----2--2--x----0-2-2----2---2-----2--2--x----0-2-2-----2------ (x2)
-0-----2--2--x--------0--4-----------------x--------0---4---4----
-------------x-------------4---2-----0--0--x---------------------
-------------x--3--------------------------x--3------------------

Instrumental:
 Dsus2       s  G     Dsus2    Bm7   Bm7/A s  G     Dsus2
---0---------x-------------------0---------x---------------------
-3---3-3--3--x--3-----3----3---3---3-3--3--x--3-----3------------
-2-----2--2--x----0-2-2----2---2-----2--2--x----0-2-2-----2------
-0-----2--2--x--------0--4-----------------x--------0---4---4----
-------------x-------------4---2-----0--0--x---------------------
-------------x--3--------------------------x--3------------------

Pre-Chorus:
 Bm7            Bm7/A          G              G
---------------------------------------------------------------
-3-----3--------3-----3--------3-----3--------3-----3----------
-2---2------2---2---2------2---4---4------4---4---4------4-----
---4------4---4---4------4---4---5------5---5---5------5---5---
-2--------------0----------------------------------------------
-------------------------------3--------------3----------------

 Bm7            Bm7/A          G              A
---------------------------------------------------------------
-3-----3--------3-----3--------3-----3-------------------------
-2---2------2---2---2------2---4---4------4---6-----6----------
---4------4---4---4------4---4---5------5---5-7---7------7-----
-2--------------0-------------------------------7------7---7---
-------------------------------3--------------5----------------

Chorus:
 D              F#7            Bm7            Bm7/A          G              A
-------------------------------------------------------------------------------------------
-3-----3--------2-----2--------3-----3--------3-----3--------3-----3-----------------------
-2---2------2---3---3------3---2---2------2---2---2------2---4---4------4---6-----6-------- (x2)
---4------4---4---2------2---2---4------4---4---4------4---4---5------5---5-7---7------7---
-5-----------------------------2--------------0-------------------------------7------7---7-
----------------2--------------------------------------------3--------------5--------------

repeat Instrumental

repeat Verse

repeat Pre-Chorus

repeat Chorus (x2)

Outro:
 D              F#7            Bm7            Bm7/A          G              A
-------------------------------------------------------------------------------------------
-3-----3--------2-----2--------3-----3--------3-----3--------3-----3-----------------------
-2---2------2---3---3------3---2---2------2---2---2------2---4---4------4---6-----6--------
---4------4---4---2------2---2---4------4---4---4------4---4---5------5---5-7---7------7---
-5-----------------------------2--------------0-------------------------------7------7---7-
----------------2--------------------------------------------3--------------5--------------

 G              Gm                 D
-------------------------3---------2---2h5p2----------
-3-----3--------3-----3-----3------3---------3--------
-4---4------4---3---3----------3---2-----------2------
---5------5---5---5----------------0-------------4----
---------------------------------------------------5--
-3--------------3-------------------------------------

Transcribed by,
tsunvun86

Written by tsunvun86

April 3, 2013 at 7:21 pm

%d bloggers like this: