Know Music, Know Life

tsunvun86's Guitar Chords & Tabs

Posts Tagged ‘your

YUI – HOW CRAZY YOUR LOVE [Chords & Tabs]

leave a comment »


Tracklist:

  1. HELLO
  2. Separation
  3. Get Back Home
  4. Lock On
  5. U-niform
  6. Cooking
  7. Rain
  8. Good night
  9. YOU
  10. It’s My Life
  11. no Reason
  12. Nobody Knows
  13. Green a.live
Advertisements

Written by tsunvun86

October 30, 2011 at 5:14 pm

YUI – Nobody Knows [Chords & Tabs]

with one comment


Full tabs coming later**

YUI - Nobody Knows

A/C# - x4222x

Intro:
D D D D
D C G G (x2)

Verse 1:
D C G G (x4)
Bb F C G

Instrumental 1:
D C G G

Verse 2:
D C G G (x4)
Bb F C G
D

Chorus:
Em7 G D D
Em7 G D A/C# Bm A E G

Instrumental 1:
D C G G (x2)

repeat Verse 2

repeat Chorus

Solo:
D F G (x2)

Bridge:
Bb7 C7 D D (x2)
Bb7 C7 D

Chorus 2:
Em7 G D D
Em7 G D A/C# Bm A
Em7 G D D
Em7 G D A/C# Bm A E G

Outro:
D C G G (x4)
D

Intro:
-----------------------------------------------
-------------------7h8-7--7-5h7----------------
-5h7--7--7-4h5--5-----------------7-5h7p5\4-2--
-0---------0----------------------------------- (x2)
-----------------------------------------------
-----------------------------------------------

-----------------------------------------------      -----
-----------------------------------------------      -----
-5h7--7--7-4h5--5--5-2h4--4--4-----------------      -----
-0---------0---------0---------3h5-5-3h5-5-3h5- (x2) -5/7-
-----------------------------------------------      -----
-----------------------------------------------      -----

Verse 1 Riff:
---------------------      --------------------------------------------
---------------------      --------------------------------------------
---------------------      -----------------5/7------------------------
-3h5-5-3h5-5-3h5-5/7- (x2) -3h5-5-3h5-5-3h5------------3h5-5-3h5-5-3h5-
---------------------      --------------------------------------------
---------------------      --------------------------------------------

Instrumental 1:
----------------------------------------------------
----------------------------------------------------
-5h7--7--7-4h5--5--5-2h4--4--4----------------------
-0---------0---------0---------3h5-5-3h5-5-3h5-5/7--
----------------------------------------------------
----------------------------------------------------

Verse 2 Riff:
-----------------------------------------------------
-----------------------------------------------------
--------------------------------------------5/7------
-3h5-5-3h5-5-3h5-5/7--------3h5-5-3h5-5-3h5----------
-----------------------------------------------------
-----------------------------------------------------

-----------------------------------------------------
-----------------------------------------------------
----------------------5/7b9b7------------------------
-3h5-5-3h5-5-3h5-5/7-----------------3h5-5-3h5-5-3h5-
-----------------------------------------------------
-----------------------------------------------------

Instrumental 2:
--------------------------------------------------------------------------
--------------------------------------------------------------------------
-5h7--7--7-4h5--5--5-2h4--4--4-----------------5h7--7--7-4h5--5--5-2h4--4-
-------------------------------3h5-5-3h5-5-3h5----------------------------
--------------------------------------------------------------------------
--------------------------------------------------------------------------

-------10--------------------------
----------13-10--------------------
-12b14----------12b14b12-10--------
----------------------------12-12--
-----------------------------------
-----------------------------------

Solo:
----------------------------------------------------------------------------------------
----------------------------------------------------------------------------------------
----------------------------------------------------------------------------------------
----------------------------------------------------------------------------------------
----------------------------------------------------------------------------------------
----------------------------------------------------------------------------------------

Outro:
----------------------------------------------------------------------------------------
----------------------------------------------------------------------------------------
----------------------------------------------------------------------------------------
----------------------------------------------------------------------------------------
----------------------------------------------------------------------------------------
----------------------------------------------------------------------------------------


Transcribed by,
tsunvun86

Written by tsunvun86

October 30, 2011 at 5:09 pm

Posted in Chords & Tabs, YUI

Tagged with , , , , , , , , ,

YUI – no Reason [Chords & Tabs]

with one comment


YUI - no Reason

Intro:
D G A A (x2)

Verse:
D Em G A (x2)

Pre-Chorus:
F#m F#m Bm Bm
G G A

Chorus:
D G Bm A (x2)

Instrumental:
D G A A (x2)

repeat Verse

repeat Pre-Chorus

repeat Chorus

Bridge:
D G Bm A (x2)
Em A

Chorus 2:
D G Bm A (x4)

Outro:
D G A A (x2)
G

Intro/Instrumental:
Guitar 1
-----------------------------------------------------------------------------------
-8-10--8--7h8p7--------------------------------7-8--8-10--8--7h8p7-----------------
----------------7-7/9--7-7--7-6-6-6-7-9--9-9-9---------------------7-7/9--7-7------
-----------------------------------------------------------------------------------
-----------------------------------------------------------------------------------
-----------------------------------------------------------------------------------
Guitar 2
-----------------------------------------------------------------------------------
-----------------------------------------------------------------------------------
-9-11--9--7h9p7-------------------------------------7-9--9-11--9--7h9p7------------
----------------7-9/11-9-9--9-7-7-7-9-9/11-11-11-11---------------------7-9/11-9-9-
-----------------------------------------------------------------------------------
-----------------------------------------------------------------------------------
Guitar 3
-----------------------------------------------------------------------------------
-----------------------7-7-5-5-3-3-2-2-------------------------------------7-7-5-5-
-----------------------7-7-6-6-4-4-2-2-------------------------------------7-7-6-6-
-----------------------------------------------------------------------------------
-----------------------------------------------------------------------------------
-----------------------------------------------------------------------------------

_____________________

Guitar 1
---------------------------------------
--------------7-7-7-8--10--14-15-------
-7-6-6-6-7-9---------------------------
---------------------------------------
---------------------------------------
---------------------------------------
Guitar 2
---------------------------------------
---------------------------------------
-----------------7-7-7-9--11--11/12-11-
-9-7-7-7-9-9/11------------------------
---------------------------------------
---------------------------------------
Guitar 3
---------------------------------------
-3-3-2-2-------------------------------
-4-4-2-2-------------------------------
---------------------------------------
---------------------------------------
---------------------------------------

Outro:
Guitar 1
-----------------------------------------------------------------------------------
-8-10--8--7h8p7--------------------------------7-8--8-10--8--7h8p7-----------------
----------------7-7/9--7-7--7-6-6-6-7-9--9-9-9---------------------7-7/9--7-7------
-----------------------------------------------------------------------------------
-----------------------------------------------------------------------------------
-----------------------------------------------------------------------------------
Guitar 2
-----------------------------------------------------------------------------------
-----------------------------------------------------------------------------------
-9-11--9--7h9p7-------------------------------------7-9--9-11--9--7h9p7------------
----------------7-9/11-9-9--9-7-7-7-9-9/11-11-11-11---------------------7-9/11-9-9-
-----------------------------------------------------------------------------------
-----------------------------------------------------------------------------------
Guitar 3
-----------------------------------------------------------------------------------
-----------------------7-7-5-5-3-3-2-2-------------------------------------7-7-5-5-
-----------------------7-7-6-6-4-4-2-2-------------------------------------7-7-6-6-
-----------------------------------------------------------------------------------
-----------------------------------------------------------------------------------
-----------------------------------------------------------------------------------

_____________________

Guitar 1
-------------------------------------------------
--------------7-7-7-8--10--14-14/15--14--12------
-7-6-6-6-7-9-------------------------------------
-------------------------------------------------
-------------------------------------------------
-------------------------------------------------
Guitar 2
-------------------------------------------------
-------------------------------------------------
-----------------7-7-7-9--11--11/12-11--9--10/12-
-9-7-7-7-9-9/11----------------------------------
-------------------------------------------------
-------------------------------------------------
Guitar 3
-------------------------------------------------
-3-3-2-2-----------------------------------------
-4-4-2-2-----------------------------------------
-------------------------------------------------
-------------------------------------------------
-------------------------------------------------


Transcribed by,
tsunvun86

Written by tsunvun86

October 30, 2011 at 3:41 pm

Posted in Chords & Tabs, YUI

Tagged with , , , , , , , , ,

YUI – Cooking [Chords]

with one comment


YUI - Cooking

Intro:
F G C (x2)

Verse:
F G C (x2)
F G Am C
F G C

Pre-Chorus:
Em F (x2)
Em F G G

Chorus:
F G Em Am
F G Am C
F G Em Am
F G C

Instrumental:
F G C (x2)

repeat Verse

repeat Pre-Chorus

repeat Chorus

Bridge:
Dm Em F Fm
Am G F G 
Am G F F G

repeat Chorus (x2)

F G C

Outro:
F G C (x2)
F G Am C
F G C




Transcribed by,
tsunvun86

Written by tsunvun86

October 30, 2011 at 2:57 pm

Posted in Guitar Cover, YUI

Tagged with , , , , , , , ,

YUI – U-niform [Chords & Tabs]

leave a comment »


YUI - U-niform

Dsus2 - xx0230

Intro:
Dsus2 Dsus2 G G (x3)

Verse:
Dsus2 Dsus2 G G (x2)

Pre-Chorus:
Em Em G G A

Chorus:
G Dsus2 (x4)

Instrumental:
Dsus2 Dsus2 G G

repeat Verse

repeat Pre-Chorus

repeat Chorus

Bridge:
G G A
Bm C Dsus2 A
Bm C A A

repeat Chorus

Outro:
Dsus2 Dsus2 G G (x4)
Dsus2


Intro:
Guitar 1
---------------------------------------------------------------------
-8/10----------------------------------------------------------------
-----------9/11------------------------------------------------------
---------------------------------------------------------------------
----------------------5--7--9--7/9--7-5-------5--7--9--7/9--7-5-7/10-
----------------------------------------7----------------------------


Guitar 2
------10-------------------------------------------------------------
-8/10-----------12---------------------------------------------------
-----------9/11-------7-----------------------7-----------------5/7--
-------------------------------5/7--5-4----------------5/7--5-4------
----------------------5-----------------5-----5----------------------
---------------------------------------------------------------------

Instrumental:
Guitar 1
----------------------
----------------------
----------------------
----------------------
-5--7--9--7/9--7-5----
-------------------7--


Guitar 2
----------------------
----------------------
-7--------------------
----------5/7--5-4----
-5-----------------5--
----------------------


Bridge:
------------------------5-5--------------------------------------------------------5-
-10b12b10-8-------------5-5-------------------8-7h8p7----------8-------------------5-
------------7---7-------6-6---7---7-7/9-----9---------9----5h6-----7---7-7/9-----9-6-
--------------8---------7-7-----7-------7h9-------------7------------7-------7h9---7-
------------------8/10--7-7--------------------------------------------------------7-
------------------------5-5--------------------------------------------------------5-


Outro:
Guitar 1
------------------------------------------------
------------------------------------------------
------------------------------------------------
------------------------------------------------ (x2)
-5--7--9--7/9--7-5-------5--7--9--7/9--7-5-7/10-
-------------------7----------------------------


Guitar 2
------------------------------------------------
------------------------------------------------
-7-----------------------7-----------------5/7--
----------5/7--5-4----------------5/7--5-4------ (x2)
-5-----------------5-----5----------------------
------------------------------------------------



Transcribed by,
tsunvun86

Written by tsunvun86

October 30, 2011 at 12:00 pm

Posted in Chords & Tabs, YUI

Tagged with , , , , , , , ,

YUI – Good night [Chords]

with one comment


YUI - Good night

DM7 - xx0222

Verse:
DM7 C#7 A F#
Bm C#7 F#m F#
DM7 E A
DM7 C#7 A F#
DM7 C#7 F#m


Transcribed by,
tsunvun86

Written by tsunvun86

October 30, 2011 at 5:23 am

Posted in Chords & Tabs, YUI

Tagged with , , , , , , , , ,

YUI – Get Back Home [Chords & Tabs]

leave a comment »


YUI - Get Back Home

G/B - x20033
Dadd11+(no3) - xx0234

Intro:
C Dm Dadd11+(no3) C
Am Em Dm G

Verse:
C F C C G/B
Am F C C G/B
Am G F C G/B
Am F G G

Chorus:
C G/B Am G
F G C E
C G/B Am G
F G C

Instrumental:
C Dm Dadd11+(no3) C 
Am Em Dm G

Verse 2:
C F C C G/B
Am F C C G/B
Am C F C G/B
Am F G G

Chorus 2:
C G/B Am G
F G C E
C Em Am G
F G C

Bridge:
Bb F C C
Bb F G G

repeat Chorus

F G C (x2)

Outro:
C Dm Dadd11+(no3) C
Am Em Dm G
C C


Intro/Instrumental:
 C          Dm      Dadd11+(no3) C     Am        Em        Dm             G
-8--------------1-----4---1-4----0-----8------------------------------------------------
-8--8---8---3-3---3---3-3--------1-----10---10-----8---8------------10-13-12------------
-9----9-----2---------2----------0-----9--9------9---9-9---------10-------12------------
-10---------0---------0----------2-------------------------10/12----------12------------
-10------------------------------3----------------------------------------10------------
-8--------------------------------------------------------------------------------------

Outro:
 C          Dm      Dadd11+(no3) C     Am        Em        Dm             G     C
-8--------------1-----4---1-4----0-----8------------------------------------------------
-8--8---8---3-3---3---3-3--------1-----10---10-----8---8------------10-13-12----5-------
-9----9-----2---------2----------0-----9--9------9---9-9---------10-------12----5-------
-10---------0---------0----------2-------------------------10/12----------12----5-------
-10------------------------------3----------------------------------------10----3-------
-8--------------------------------------------------------------------------------------




Transcribed by,
tsunvun86

Written by tsunvun86

October 30, 2011 at 2:47 am

Posted in Chords & Tabs, YUI

Tagged with , , , , , , , , , ,

%d bloggers like this: