Know Music, Know Life

tsunvun86's Guitar Chords & Tabs

Posts Tagged ‘you

YUI – If you [Chords]

leave a comment »


YUI - If you

Intro:
E E E E

Verse:
E E E E (x2)

Pre-Chorus:
F#m G#m A (x2)
B

Chorus:
A E A E
F#m G#m A C

Instrumental:
E E E E

repeat Verse

repeat Pre-Chorus

repeat Chorus

Solo:
E E
F#m G#m Am E
F#m G#m A A
B B

Bridge:
C#m B G#m A (x2)
B

repeat Chorus

Outro:
E E E E (x2)
E

Transcribed by,
tsunvun86
Advertisements

Written by tsunvun86

September 4, 2012 at 9:11 pm

Posted in Chords & Tabs, YUI

Tagged with , , , ,

YUI – HOW CRAZY YOUR LOVE [Chords & Tabs]

leave a comment »


Tracklist:

  1. HELLO
  2. Separation
  3. Get Back Home
  4. Lock On
  5. U-niform
  6. Cooking
  7. Rain
  8. Good night
  9. YOU
  10. It’s My Life
  11. no Reason
  12. Nobody Knows
  13. Green a.live

Written by tsunvun86

October 30, 2011 at 5:14 pm

YUI – YOU [Chords]

with 2 comments


YUI - YOU

Intro:
G A F#m Bm
Em A Bm
G A F#m Bm
Em A D

Verse:
G A D
G A Bm
G A D (x2)

Pre-Chorus:
Bm A G (x2)
A

Chorus:
G A D Bm
G F# Bm A
G A D Bm
G A D

Instrumental:
G A F#m Bm
Em A D

repeat Verse

repeat Pre-Chorus

repeat Chorus

Bridge:
Em F#m G A (x2)

repeat Chorus

G A D

Outro:
G A F#m Bm
Em A Bm
G A F#m Bm
Em A D


Transcribed by,
tsunvun86 @ YUI-Lover Forum & Fansite

Written by tsunvun86

May 28, 2011 at 11:51 pm

Posted in Chords & Tabs, YUI

Tagged with , , , , , , ,

YUI – Your Heaven [Chords & Tabs]

with one comment


There are some plucking at end of First Chorus and Second Verse that I can quite make out yet with my current lousy audio file. Will update when I get a better quality audio file.

YUI - Your Heaven

***Capo at 1st fret

Asus2 - x02200
Dsus2 - xx0230 or x57755

Intro:
Asus2 E F#m7 Dsus2 (x2)

Verse:
Asus2 E F#m7 Dsus2 (x2)

Pre-Chorus:
Bm Dsus2 (x2)

Chorus:
Asus2 E F#m7 Dsus2 (x4)

repeat Verse

repeat Pre-Chorus

Chorus 2:
Asus2 E F#m7 Dsus2 (x2)

Bridge:
Bm C#m Dsus2 (x2)

repeat Chorus

Outro:
Asus2 E F#m7 Dsus2 (x2)
Asus2

Intro Plucking:
 Asus2       E           F#m7        Dsus2
-------------------------------------------0----------
-------0--------------0----------------3------3-------
---2------2----1---2-------2---4--2------2------------
-----2-----------2-----------2-------0----------------
-0----------------------------------------------------
-------------0-----------2----------------------------

 Asus2       E           F#m7        Dsus2
-------------------------------------0----------------
-------0--------------0--------------3----------------
---2------2----1---2-------2---4--2--2----------------
-----2-----------2-----------2-------0----------------
-0----------------------------------------------------
-------------0-----------2----------------------------

Solo (using slides/bottleneck): 
**Fret number as if capo not on. Kind of confusing to shift.
------------------------------------------------------
-/16-16-15\-/11---/13\11-13--13/15--13-15-15/16-------
------------------------------------------------------
------------------------------------------------------
------------------------------------------------------
------------------------------------------------------

-----------11-----------------------------------------
------8/11--------------------------------------------
----8-------------------------------------------------
-/8---------------------------------------------------
------------------------------------------------------
------------------------------------------------------

Transcribed by,
tsunvun86 @ YUI-Lover Forum & Fansite

Written by tsunvun86

December 14, 2010 at 2:19 pm

Posted in Chords & Tabs, YUI

Tagged with , , , , , , ,

YUI – You Heaven Commercial [Chords & Tabs]

leave a comment »


You can get the video from *here*

YUI - Your Heaven Commercial (Play You)

**Capo at 1st fret

Asus2 - x02200
Dsus2 - xx0230 or x57755


-------
-5--3--
-------
-------
-------
-------

Chorus:
Asus2 E F#m Dsus2 (x2)
Bm Dsus2 (x2)
Asus2 E F#m Dsus2 (x3)


Transcribed by,
tsunvun86 @ YUI-Lover Forum & Fansite

Written by tsunvun86

December 10, 2010 at 4:12 pm

Posted in Chords & Tabs, YUI

Tagged with , , , , , , ,

[K-ON!!] HO-KAGO TEA TIME – NO, Thank You! [Chords & Tabs]

with 13 comments


HO-KAGO TEA TIME - NO, Thank You!

FM7 - 133210
CM7 - x32000
GM7 - 320002
A.H. - Artificial Harmonics/Pinch Harmonics
P.S. - Pitch Shift (Pedal)

Intro:
Em   )
C D  } (x2)

Verse:
Em D A (x4)
Em A (x2)
C G/B
Am Bm C D

Chorus:
C D G Em
C D Em D/F# G Bm
C D Bm Em
Am Bm

Instrumental:
Em   )
C D  } (x2)

repeat Verse

repeat Chorus

Bridge:
FM7
CM7 Bm7
CM7 GM7
C Bm7 Em7
Am Bm C D

Solo:
Em F (x3)  )
Em G F     }  (x3)
Em F (x2)
D G C F

Verse 2:
Em A (x2)
C G/B
Am Bm C D
D

repeat Chorus

Outro:
Em   )
C D  } (x2)

Intro/Instrumental/Outro Solo:
----------------------------------------------------------------
----------------------------------------------------------------
----------------------------------------------------------------
-5-5--7-5-5--9--7-7--10-9--9---12-10-10--7-9--9---5-7-7--4-2--4- (x2)
-7-7--9-7-7--10-9-9--12-10-10--14-12-12--9-10-10--7-9-9--5-3--5-
----------------------------------------------------------------

Verse:
 0:27           0:32
---------------------------------------------------------------
---------------------------------------------------------------
--------------------------------9--9--9--x--9-x-9-9-9-9--------
--6-7-6-7-6------6-7-6-7-6-------------------------------------
---------------------------------------------------------------
--4-5-4-5-4------4-5-4-5-4-------------------------------------

-------------------------------------------------------------------------------
-------------------------------------------------------------------------------
-x-7--7--7--x--2-x-2-2-2-2--9--9--9--x--9-x-9-9-9-9--x-7--7--7--x--2-x-2-2-2-2-
-------------------------------------------------------------------------------
-------------------------------------------------------------------------------
-------------------------------------------------------------------------------

--------------------------------------------------------------------------
----------8-7h8p7--------------------8-7h8p7------------------------------
-9---6------------9-7-6-9---9---6------------9-7-6-9----12---9---7---12---
--------7--------------------------7-----------------7--------------------
-7---4----------------------7---4-----------------------10---7---5---10---
--------------------------------------------------------------------------

---------------------------------------------------------------
---------------------------------------------------------------
-9---11---12---14-14-------------------------------------------
---------------------------------------------------------------
-7---9----10---12-12-------------------------------------------
---------------------------------------------------------------

Verse after Instrumental:
---------------------------------------------------------------
---------------------------------------------------------------
--------------------------------9--9--9--x--9-x-9-9-9-9--------
--6-7-6-7-6------6-7-6-7-6-------------------------------------
---------------------------------------------------------------
--4-5-4-5-4------4-5-4-5-4-------------------------------------

-------------------------------------------------------------------------------
-------------------------------------------------------------------------------
-x-7--7--7--x--2-x-2-2-2-2--9--9--9--x--9-x-9-9-9-9--x-7--7--7--x--2-x-2-2-2-2-
-------------------------------------------------------------------------------
-------------------------------------------------------------------------------
-------------------------------------------------------------------------------

--------------------------------------------------------------------------
----------8-7h8p7--------------------8-7h8p7------------------------------
-9---6------------9-7-6-9---9---6------------9-7-6-9----12---9---7---12---
--------7--------------------------7-----------------7--------------------
-7---4----------------------7---4-----------------------10---7---5---10---
--------------------------------------------------------------------------

------------------------------------------------------------
------------------------------------------------------------
-14-14-----16-16-----17-17-----19-19--19-19-19--------------
-------14--------16--------17-------------------------------
-12--------14--------15--------17-17--17-17-17--------------
------------------------------------------------------------

Bridge:
FM7  CM7      Bm7       CM7     GM7
-0-------------------2----------------2-----7-----------
-1---------0------3----------0----------------7---------
-2-------0------2----------0--------0-------------------
-3-----2-----------------2--------0------/5-------------
-3---3--------2--------3--------------------------------
-1------------------------------3-----------------------

 C               Bm7     Em7
------------------------------7-------------------------
-----1-------3-------3----------------------------------
---0---0---2---2---2---2----7---------------------------
--------------------------------------------------------
-3-------3-------2-------/7-----------------------------
--------------------------------------------------------

Solo:
        A.H.-> P.S.           A.H.          A.H.
--------------------------------------------------------
-/17-17----------------/17-17--------/17-17-------------
--------14--------------------14------------14----------
--------------------------------------------------------
--------------------------------------------------------
--------------------------------------------------------

----------------10--------------8-----------------------
-------10----12---------8----10-------------------------
----11----12----------9---10----------------------------
-12----------------10-----------------------------------
--------------------------------------------------------
--------------------------------------------------------

Verse 2:
--------------------------------------------------------------------------
----------8-7h8p7--------------------8-7h8p7------------------------------
-9---6------------9-7-6-9---9---6------------9-7-6-9----12---9---7---12---
--------7--------------------------7-----------------7--------------------
-7---4----------------------7---4-----------------------10---7---5---10---
--------------------------------------------------------------------------

------------------------------------------------------------
------------------------------------------------------------
-14-14-----16-16-----17-17-----19-19--19-19-19--------------
-------14--------16--------17-------------------------------
-12--------14--------15--------17-17--17-17-17--------------
------------------------------------------------------------

Chords & Tabs by,
tsunvun86

Written by tsunvun86

September 4, 2010 at 10:17 pm

%d bloggers like this: