Know Music, Know Life

tsunvun86's Guitar Chords & Tabs

Posts Tagged ‘uniform

YUI – HOW CRAZY YOUR LOVE [Chords & Tabs]

leave a comment »


Tracklist:

  1. HELLO
  2. Separation
  3. Get Back Home
  4. Lock On
  5. U-niform
  6. Cooking
  7. Rain
  8. Good night
  9. YOU
  10. It’s My Life
  11. no Reason
  12. Nobody Knows
  13. Green a.live
Advertisements

Written by tsunvun86

October 30, 2011 at 5:14 pm

YUI – U-niform [Chords & Tabs]

leave a comment »


YUI - U-niform

Dsus2 - xx0230

Intro:
Dsus2 Dsus2 G G (x3)

Verse:
Dsus2 Dsus2 G G (x2)

Pre-Chorus:
Em Em G G A

Chorus:
G Dsus2 (x4)

Instrumental:
Dsus2 Dsus2 G G

repeat Verse

repeat Pre-Chorus

repeat Chorus

Bridge:
G G A
Bm C Dsus2 A
Bm C A A

repeat Chorus

Outro:
Dsus2 Dsus2 G G (x4)
Dsus2


Intro:
Guitar 1
---------------------------------------------------------------------
-8/10----------------------------------------------------------------
-----------9/11------------------------------------------------------
---------------------------------------------------------------------
----------------------5--7--9--7/9--7-5-------5--7--9--7/9--7-5-7/10-
----------------------------------------7----------------------------


Guitar 2
------10-------------------------------------------------------------
-8/10-----------12---------------------------------------------------
-----------9/11-------7-----------------------7-----------------5/7--
-------------------------------5/7--5-4----------------5/7--5-4------
----------------------5-----------------5-----5----------------------
---------------------------------------------------------------------

Instrumental:
Guitar 1
----------------------
----------------------
----------------------
----------------------
-5--7--9--7/9--7-5----
-------------------7--


Guitar 2
----------------------
----------------------
-7--------------------
----------5/7--5-4----
-5-----------------5--
----------------------


Bridge:
------------------------5-5--------------------------------------------------------5-
-10b12b10-8-------------5-5-------------------8-7h8p7----------8-------------------5-
------------7---7-------6-6---7---7-7/9-----9---------9----5h6-----7---7-7/9-----9-6-
--------------8---------7-7-----7-------7h9-------------7------------7-------7h9---7-
------------------8/10--7-7--------------------------------------------------------7-
------------------------5-5--------------------------------------------------------5-


Outro:
Guitar 1
------------------------------------------------
------------------------------------------------
------------------------------------------------
------------------------------------------------ (x2)
-5--7--9--7/9--7-5-------5--7--9--7/9--7-5-7/10-
-------------------7----------------------------


Guitar 2
------------------------------------------------
------------------------------------------------
-7-----------------------7-----------------5/7--
----------5/7--5-4----------------5/7--5-4------ (x2)
-5-----------------5-----5----------------------
------------------------------------------------



Transcribed by,
tsunvun86

Written by tsunvun86

October 30, 2011 at 12:00 pm

Posted in Chords & Tabs, YUI

Tagged with , , , , , , , ,

%d bloggers like this: