Know Music, Know Life

tsunvun86's Guitar Chords & Tabs

Posts Tagged ‘survive

SCANDAL – LOVE SURVIVE [Chords & Tabs]

with 6 comments


SCANDAL - LOVE SURVIVE

Intro:
F G Em Am  )
F G Am     } (x2)

Verse:
F F Em Am (x2)

Pre-Chorus:
Dm Em Am (x2)
Bb Am Dm E

Chorus:
F G Em Am )
Dm G Am   } (x2)
Dm G

Instrumental:
F G Em Am
F G Am

repeat Verse

Pre-Chorus 2:
Dm Em Am
Bb Am Dm E

Chorus 2:
F G Em Am
Dm G Am
Dm G

Bridge:
F G Em Am
F G Am
F G Em Am
Dm G

Instrumental 2:
Am Bb
Am F Em
Am Bb
Am C Dm
Am Bb
Am F Em
Am Bb
Em F F# G G# Am

Chorus 3:
F G Em Am )
Dm G Am   } (x3)
Dm Dm Dm G


Outro:
F G Em Am
F G Am


Intro/Instrumental/Outro Riff:
-/12-12-12-12-13-13-13-15--15-15--10-10-10-7-7-7--8-7--5----------
----------------------------------------------------------5-------
-/9--9--9--9--10-10-10-12--12-12--7--7--7--4-4-4--5-4--2----------
----------------------------------------------------------2-------
------------------------------------------------------------------
------------------------------------------------------------------

-12-12-12-13-13-13-15--15-15--8-8-8-7-7-7-7-8--7-7-7-8----8-7-----
--------------------------------------------------------------8---
-9--9--9--10-10-10-12--12-12--5-5-5-4-4-4-4-5--4-4-4-5----------7-
------------------------------------------------------------------
------------------------------------------------------------------
------------------------------------------------------------------
(Instrumental & Outro starts here)
-12-12-12-13-13-13-15--15-15--10-10-10-7-7-7--8-7--5--------------
------------------------------------------------------5-----------
-9--9--9--10-10-10-12--12-12--7--7--7--4-4-4--5-4--2--------------
------------------------------------------------------2-----------
------------------------------------------------------------------
------------------------------------------------------------------

-12-12-12-13-13-13-15-15-15/19-19-19-19-17-17-17-17-17-17-17-17--17-17-17-17-17-17-
-----------------------------------------------------------------------------------
-9--9--9--10-10-10-12-12-12/16-16-16-16-14-14-14-14-14-14-14-14--14-14-14-14-14-14-
-----------------------------------------------------------------------------------
-----------------------------------------------------------------------------------
-----------------------------------------------------------------------------------


Instrumental 2:
------------------------------------------------------------------
------------------------------------------------------------------
------------------------------------------------------------------
-5/7--7-7--5--7--7-8-8-8--5/7--7-7--3--3--3-3-2-2-----------------
-5/7--7-7--5--7--7-8-8-8--5/7--7-7--3--3--3-3-2-2-----------------
-3/5--5-5--3--5--5-6-6-6--3/5--5-5--1--1--1-1-0-0-----------------

------------------------------------------------------------------
------------------------------------------------------------------
------------------------------------5--5--5--7--------------------
-5/7--7-7--5--7--7-8-8-8--5/7--7-7--5--5--5--7--------------------
-5/7--7-7--5--7--7-8-8-8--5/7--7-7--3--3--3--5--------------------
-3/5--5-5--3--5--5-6-6-6--3/5--5-5--------------------------------

------------------------------------------------------------------
------------------------------------------------------------------
------------------------------------------------------------------
-5/7--7-7--5--7--7-8-8-8--5/7--7-7--3--3--3-3-2-2-----------------
-5/7--7-7--5--7--7-8-8-8--5/7--7-7--3--3--3-3-2-2-----------------
-3/5--5-5--3--5--5-6-6-6--3/5--5-5--1--1--1-1-0-0-----------------

------------------------------------------------------------------
------------------------------------------------------------------
------------------------------------------------------------------
-5/7--7-7--5--7--7-8-8-8---2--3--4--5--6-7------------------------
-5/7--7-7--5--7--7-8-8-8---2--3--4--5--6-7------------------------
-3/5--5-5--3--5--5-6-6-6---0--1--2--3--4-5------------------------



Transcribed by,
tsunvun86 @ SCANDAL HEAVEN
Advertisements

Written by tsunvun86

June 20, 2011 at 11:49 am

%d bloggers like this: