Know Music, Know Life

tsunvun86's Guitar Chords & Tabs

Posts Tagged ‘shine

Ieiri Leo – Shine [Chords]

leave a comment »


Ieiri Leo - Shine

Intro:
D E A A

Verse:
D E A A
D E F#m F#m

Pre-Chorus:
D D E E (x2)

Chorus:
F#m D E
A E F#m D E E
F#m D E
A E F#m D E E
D E F#m B
D E

repeat Verse

repeat Pre-Chorus

repeat Chorus

Bridge:
D E C#m F#m
D D E E

repeat Chorus


Solo before Bridge:
-------------------9---------
-----------10------12b14-12--
------9-11----11-------------
-9-11------------------------
-----------------------------
-----------------------------

Outro:
--------------9--------------------------------------
-/9--10\7-7---12b14--12-10-9--9h10p9-----------------
-------------------------------------11-9------------
------------------------------------------11-10-9-11-
-----------------------------------------------------
-----------------------------------------------------


Transcribed by,
tsunvun86

Written by tsunvun86

May 5, 2012 at 12:50 am

Girls Dead Monster – Shine Days [Chords & Tabs]

with 3 comments



Girls Dead Monster - Shine Days

Intro:
Dm
Dm Bb C (x2)
Dm Bb Am C
Dm Bb C

Verse:
Dm Bb Am C
Dm Bb C F
Dm Bb Am C
Dm Bb C F

Chorus
G D Em C D (x2)

repeat Verse

Chorus 2
G D Em C D (x4)

Instrumental:
C D Bm
C D Em
C D Bm
C D G

Solo:
G D Em C D (x2)

Bridge:
C D Bm
C D Em
C D Bm
C D G

repeat Chorus 2

Outro:
G D Em C D (x2)
G


Intro:
---8--------------     ---8-------------- ---8--------------     ------------------
-------10---8---6-     -------10---8-6-5- -------10---8---6-     -5-6-5------------
-7---7----5---5---     -7---7----5------- -7---7----5---5---     -------5/7-5-5----
------------------(x7) ------------------ ------------------(x3) ------------------
------------------     ------------------ ------------------     ------------------
------------------     ------------------ ------------------     ------------------

---8--------------     ---8-------------- ---8--------------     ------------------
-------10---8---6-     -------10---8-6-5- -------10---8---6-     -5-6-5-----5-6-8--
-7---7----5---5---     -7---7----5------- -7---7----5---5---     -------5/7--------
------------------(x3) ------------------ ------------------(x2) ------------------
------------------     ------------------ ------------------     ------------------
------------------     ------------------ ------------------     ------------------

-8---8/10\8-8-8--
---8-8/10\8-8-8--
-----------------
-----------------
-----------------
-----------------

Instrumental Solo:
-----10---------------     -----10-----------------------------------
----------12---10---8-     ----------12---10-8-7---------------------
-7/9----9----7----7---     -7/9----9----7----------------------------
----------------------(x3) ------------------------------------------
----------------------     ------------------------------------------
----------------------     ------------------------------------------

-----10---------------     -----10-----------------------------------
----------12---10---8-     ----------12---10---7-7-8--8-8-x-x-8------
-7/9----9----7----7---     -7/9----9----7----7-7-7-7--7-7-x-x-7------
----------------------(x2) ------------------------------------------
----------------------     ------------------------------------------
----------------------     ------------------------------------------

Solo:
----------------------------------------------------------------
-6/8-----8/10--8\7--7-8----10/12-12b13-12b13b12-10\8-7-8--------
-------7----------------7---------------------------------------
----------------------------------------------------------------
----------------------------------------------------------------
----------------------------------------------------------------

----------------------------------------------------------------
----------------------------------------------------------------
-7h9-7----------------------------------------------------------
-------9\7-5-7-5-5-------5---5-7-7b8-7b8b7-5-7-5----------------
-------------------5/7-7---7---------------------7--------------
----------------------------------------------------------------

--------------------------------------------------------------------
-----------------------------------------------------------------15-
-x-x-14b16--14b16--14b16-14-12-14-12-------------12-14-12--14/16-16-
-x-x-0------0------0-----0--0--0--0--12h14-12-14-0--0--0------------
--------------------------------------------------------------------
--------------------------------------------------------------------

-------15-----------------15----------15----17b19-17b19-17b19---
-15-17-15-15-18-15--15h17-15-15-15h17-15-15---------------------
-16-16-------17-------------------------------------------------
----------------------------------------------------------------
----------------------------------------------------------------
----------------------------------------------------------------

-------15-15---15-----------------------------------------------
-15-15-15-15---15-15h17-15--------------------------------------
---------------------------16\14-12-14-12-12-------12----12-----
---------------------------------------------12h14----14--------
----------------------------------------------------------------
----------------------------------------------------------------

----------------------------------------------------------------
----------------------------------------------------------------
-14-14-14-14-14-14-14-14b16b14-12-------------------------------
----------------------------------------------------------------
----------------------------------------------------------------
----------------------------------------------------------------


Outro Solo:
---10---7-------------10---7------------10---7------------10---7--------------
------------10---8-------------8-10-8------------10---8------------10-8-7-----
-7----7---7----7----7----7---7--------7----7---7----7---7----7---7------------
------------------------------------------------------------------------------
------------------------------------------------------------------------------
------------------------------------------------------------------------------

---10---7-------------10---7------------10---7--------------------------------
------------10---8-------------8-10-8------------10---8-7-8-7-----7-8-10------
-7----7---7----7----7----7---7--------7----7---7----7---------7/9-------------
------------------------------------------------------------------------------
------------------------------------------------------------------------------
------------------------------------------------------------------------------

--------------------------------------------------10---------------------------
-10b12--10b12b10-8--8-------8-----8-10-8-10-10b12----10b12b10p8-10-8-----------
-----------------7--7---7h9---7h9----------------------------------------------
-------------------------------------------------------------------------------
-------------------------------------------------------------------------------
-------------------------------------------------------------------------------

-----12-12-12--14--15-15-15-12-15---------------------------------------------------------
-/12-12-12-12--15--15-15-15-12-15--15-15b17-15--------15-------------------15----15/17-15-
------------------------------------------------14/16-16-14-12-14-12-14/16----16----------
------------------------------------------------------------------------------------------
------------------------------------------------------------------------------------------
------------------------------------------------------------------------------------------

-17b19--17b19b17-15--15-15-----------------------------------------------------
-----------------15--15-15---15~\13--12----------------------------------------
----------------------------------------12-------------------------------------
-------------------------------------------------------------------------------
-------------------------------------------------------------------------------
-------------------------------------------------------------------------------


Transcribed by,
tsunvun86

Written by tsunvun86

October 26, 2010 at 9:10 pm

%d bloggers like this: