Know Music, Know Life

tsunvun86's Guitar Chords & Tabs

Posts Tagged ‘reason

YUI – HOW CRAZY YOUR LOVE [Chords & Tabs]

leave a comment »


Tracklist:

  1. HELLO
  2. Separation
  3. Get Back Home
  4. Lock On
  5. U-niform
  6. Cooking
  7. Rain
  8. Good night
  9. YOU
  10. It’s My Life
  11. no Reason
  12. Nobody Knows
  13. Green a.live
Advertisements

Written by tsunvun86

October 30, 2011 at 5:14 pm

YUI – no Reason [Chords & Tabs]

with one comment


YUI - no Reason

Intro:
D G A A (x2)

Verse:
D Em G A (x2)

Pre-Chorus:
F#m F#m Bm Bm
G G A

Chorus:
D G Bm A (x2)

Instrumental:
D G A A (x2)

repeat Verse

repeat Pre-Chorus

repeat Chorus

Bridge:
D G Bm A (x2)
Em A

Chorus 2:
D G Bm A (x4)

Outro:
D G A A (x2)
G

Intro/Instrumental:
Guitar 1
-----------------------------------------------------------------------------------
-8-10--8--7h8p7--------------------------------7-8--8-10--8--7h8p7-----------------
----------------7-7/9--7-7--7-6-6-6-7-9--9-9-9---------------------7-7/9--7-7------
-----------------------------------------------------------------------------------
-----------------------------------------------------------------------------------
-----------------------------------------------------------------------------------
Guitar 2
-----------------------------------------------------------------------------------
-----------------------------------------------------------------------------------
-9-11--9--7h9p7-------------------------------------7-9--9-11--9--7h9p7------------
----------------7-9/11-9-9--9-7-7-7-9-9/11-11-11-11---------------------7-9/11-9-9-
-----------------------------------------------------------------------------------
-----------------------------------------------------------------------------------
Guitar 3
-----------------------------------------------------------------------------------
-----------------------7-7-5-5-3-3-2-2-------------------------------------7-7-5-5-
-----------------------7-7-6-6-4-4-2-2-------------------------------------7-7-6-6-
-----------------------------------------------------------------------------------
-----------------------------------------------------------------------------------
-----------------------------------------------------------------------------------

_____________________

Guitar 1
---------------------------------------
--------------7-7-7-8--10--14-15-------
-7-6-6-6-7-9---------------------------
---------------------------------------
---------------------------------------
---------------------------------------
Guitar 2
---------------------------------------
---------------------------------------
-----------------7-7-7-9--11--11/12-11-
-9-7-7-7-9-9/11------------------------
---------------------------------------
---------------------------------------
Guitar 3
---------------------------------------
-3-3-2-2-------------------------------
-4-4-2-2-------------------------------
---------------------------------------
---------------------------------------
---------------------------------------

Outro:
Guitar 1
-----------------------------------------------------------------------------------
-8-10--8--7h8p7--------------------------------7-8--8-10--8--7h8p7-----------------
----------------7-7/9--7-7--7-6-6-6-7-9--9-9-9---------------------7-7/9--7-7------
-----------------------------------------------------------------------------------
-----------------------------------------------------------------------------------
-----------------------------------------------------------------------------------
Guitar 2
-----------------------------------------------------------------------------------
-----------------------------------------------------------------------------------
-9-11--9--7h9p7-------------------------------------7-9--9-11--9--7h9p7------------
----------------7-9/11-9-9--9-7-7-7-9-9/11-11-11-11---------------------7-9/11-9-9-
-----------------------------------------------------------------------------------
-----------------------------------------------------------------------------------
Guitar 3
-----------------------------------------------------------------------------------
-----------------------7-7-5-5-3-3-2-2-------------------------------------7-7-5-5-
-----------------------7-7-6-6-4-4-2-2-------------------------------------7-7-6-6-
-----------------------------------------------------------------------------------
-----------------------------------------------------------------------------------
-----------------------------------------------------------------------------------

_____________________

Guitar 1
-------------------------------------------------
--------------7-7-7-8--10--14-14/15--14--12------
-7-6-6-6-7-9-------------------------------------
-------------------------------------------------
-------------------------------------------------
-------------------------------------------------
Guitar 2
-------------------------------------------------
-------------------------------------------------
-----------------7-7-7-9--11--11/12-11--9--10/12-
-9-7-7-7-9-9/11----------------------------------
-------------------------------------------------
-------------------------------------------------
Guitar 3
-------------------------------------------------
-3-3-2-2-----------------------------------------
-4-4-2-2-----------------------------------------
-------------------------------------------------
-------------------------------------------------
-------------------------------------------------


Transcribed by,
tsunvun86

Written by tsunvun86

October 30, 2011 at 3:41 pm

Posted in Chords & Tabs, YUI

Tagged with , , , , , , , , ,

%d bloggers like this: