Know Music, Know Life

tsunvun86's Guitar Chords & Tabs

Posts Tagged ‘rain

YUI – HOW CRAZY YOUR LOVE [Chords & Tabs]

leave a comment »

Written by tsunvun86

October 30, 2011 at 5:14 pm

YUI – Rain [Chords & Tabs]

with 8 comments



Rain solo cover<—–*click for cover*

YUI - Rain

Intro:
Am
Dm C Bb C (x2)

Verse:
Dm C Bb C (x2)

Pre-Chorus:
Gm Bb F C
Gm Bb Gm A
Bb C

Chorus:
Bb C Dm F
Gm Am Bb A7
Bb C Dm F
Gm Am Bb C
Dm

repeat Verse

repeat Pre-Chorus

repeat Chorus

Bridge:
Bb
F C
Bb
F A

Solo:
Bb C Dm F
Gm Am Bb A7

repeat Chorus

Outro:
Dm C Bb C
Dm C Bb C
Dm

Intro Solo:
------------------10----------------------------------------8-----
-------10------10-10--10---------------------------------10----10-
-10-12-----12------------12--10-9---10-9-10-10/12-10--10----------
------------------------------------------------------------------
------------------------------------------------------------------
------------------------------------------------------------------

------------------10-------------------------10----10---------------
-------10------10-10--10---------------------10----10---13-13-13-13-
-10-12-----12------------12--10-9---10----10----10------12-12-12-12-
---------------------------------------12---------------------------
--------------------------------------------------------------------
--------------------------------------------------------------------

Pre-Chorus 1:
 Gm           Bb           F            C
-------5-3--------6-6------------1--------------8---------------
---3-------3-----------------1-----1----------------------------
-----3----------7-----7--------2-----2-----9------9-------------
-5------------8---------8--3-----------------10-----10----------
----------------------------------------10----------------------
----------------------------------------------------------------

 Gm           Bb           Gm
-------5----------6--------------5------------------------------
---3-----3-------------------3-----3----------------------------
-----3-----3----7---7----------3-----3--------------------------
-5--------------------8----5------------------------------------
--------------8---------8---------------------------------------
----------------------------------------------------------------

Lick at the end of first Chorus:
----------------------------------------------------------------
----------------------------------------------------------------
-9b10b9-7-5-----------------------------------------------------
------------7\5-3-----------------------------------------------
-------------------5p3h5----------------------------------------
----------------------------------------------------------------

Pre-Chorus 2:
 Gm           Bb           F            C
-------5----------6-6------------3-1----------------------------
---3-----3-------------------1-------1----5---6p5---------------
-----3-----3----7-----7----2---2------------5-----5-------------
-5------------8---------8---------------5-----------5-----------
----------------------------------------------------------------
----------------------------------------------------------------

 Gm           Bb           Gm
-------5----------6-6------------5------------------------------
---3-----3-------------------3-----3----------------------------
-----3-----3----7-----7--------3-----3--------------------------
-5----------------------8--5------------------------------------
--------------8-------------------------------------------------
----------------------------------------------------------------

Solo:
-----------------------------------------------12b13--12--10-------------
--------------------11---------------------------------------10-13b15b13-
----9-------9-10-12-----10------9--10--12--10----------------------------
-11---11-12-----------------12-------------------------------------------
-------------------------------------------------------------------------
-------------------------------------------------------------------------

---------------------------15----13----12------------13-------------------
-----------------------/13----13----13----13---13b15----13b15b13-10-------
-/15-x-x-14-x-x-15-17-----------------------------------------------12-10-
--------------------------------------------------------------------------
--------------------------------------------------------------------------
--------------------------------------------------------------------------

----------------------------------------------------------------
----------------------------------------------------------------
-12b14-12-10-9--------------------------------------------------
----------------11----------------------------------------------
----------------------------------------------------------------
----------------------------------------------------------------

Outro Solo:
------------------10----------------------------------------8-----
-------10------10-10--10---------------------------------10----10-
-10-12-----12------------12--10-9---10-9-10-10/12-10--10----------
------------------------------------------------------------------
------------------------------------------------------------------
------------------------------------------------------------------

------------------10-------------------------10-------------------
-------10------10-10--10---------------------10-------13-13-13----
-10-12-----12------------12--10-9---10----10-----10---12-12-12----
---------------------------------------12-------------------------
------------------------------------------------------------------
------------------------------------------------------------------

Transcribed by,
tsunvun86 @ YUI-Lover Forum & Fansite

Written by tsunvun86

September 26, 2010 at 6:28 pm

Posted in Chords & Tabs, Guitar Cover, YUI

Tagged with , , , , ,

%d bloggers like this: