Know Music, Know Life

tsunvun86's Guitar Chords & Tabs

Posts Tagged ‘on

YUI – HOW CRAZY YOUR LOVE [Chords & Tabs]

leave a comment »

Written by tsunvun86

October 30, 2011 at 5:14 pm

YUI – Lock On [Chords]

leave a comment »


YUI - Lock On

Bb/D - x5333x
Eb6 - x68888

Intro/Verse:
F Dm Bb C C# (x2)

Pre-Chorus:
Bb C
C# Eb

Chorus:
B C# Ebm Ebm
B C# Eb Eb
B C# Ebm Ebm
B C# Eb

Instrumental:
B C# Eb Eb
B C# Bb Bb

repeat Verse

repeat Pre-Chorus

repeat Chorus

Instrumental:
B Bb/D Eb
B Bb/D

Bridge:
Am F C D (x3)
C# Eb

repeat Chorus

Outro:
B C# Eb (x2)
Eb6


Transcribed by,
tsunvun86

Written by tsunvun86

October 16, 2011 at 8:14 pm

Posted in Chords & Tabs, YUI

Tagged with , , , , , , , ,

[K-ON!!] HO-KAGO TEA TIME – Tenshi ni Fureta yo! [Chords & Tabs]

with 7 comments


HO-KAGO TEA TIME - Tenshi ni Fureta yo!

F/A - x03211 or x032xx(power chord)
Bb/D - x5333x or x58xxx(power chord)

Intro:
Bb F Gm F Eb
F

Verse:
Bb F D Gm F Eb F F/A
Bb F D Gm F Eb F
Bb

Pre-Chorus:
Eb F Dm7 Gm
Cm Dm7 Eb F F/A

Chorus:
Bb F Gm F
Eb F Dm Gm
Cm F F/A
Bb F D Gm F
Eb F Dm G7
Cm F

Instrumental:
Bb F Gm F Eb
F

repeat Verse

repeat Pre-Chorus

repeat Chorus

Bb

Bridge:
Eb F D Gm F
Eb Bb/D Cm Bb
Cm D

Solo:
Eb
Bb C
C#
Eb F

repeat Chorus

Outro:
Bb F G F Eb
F
Bb



Intro/Instrumental Solo:
-----------------------13--11-10-11-10h11p10-----------------------
----10-11-11/13--11-13-----------------------13-11-10--10-11-13-10-
-10----------------------------------------------------------------
-------------------------------------------------------------------
-------------------------------------------------------------------
-------------------------------------------------------------------

-------------------------------------------------------------------
-------------10-10-------------------------------------------------
-10--10h12---------------------------------------------------------
-------------------------------------------------------------------
-------------------------------------------------------------------
-------------------------------------------------------------------

Lick before Bridge:
-------------------------------------------------------------
-----11-------13-13/15--15-----------------------------------
-------------------------------------------------------------
-/12----12/13----13/15---------------------------------------
-------------------------------------------------------------
-------------------------------------------------------------

Solo:
----------------------------------------------------9h11-9-11-11/13-
-8--10-11~/13-13-----------------------9----------------------------
------------------/10--8-7-8-8/10--12--11b13b11-10------------------
--------------------------------------------------------------------
-----------------------------------10-------------------------------
--------------------------------------------------------------------

-11-------15-15--13-13-x-x-15--15-x-x-17--17-x-x-20--20-------------
--------------------------------------------------------------------
----12/15-15-15--14-14-x-x-15--15-x-x-17--17-x-x--------------------
--------------------------------------------------------------------
--------------------------------------------------------------------
--------------------------------------------------------------------

Outro Solo:
-----------------------13--11-10-11-10h11p10-----------------------
----10-11-11/13--11-13-----------------------13-11-10--10-11-13-10-
-10----------------------------------------------------------------
-------------------------------------------------------------------
-------------------------------------------------------------------
-------------------------------------------------------------------

-------------------------------------------------------------------
----------10---11--------------------------------------------------
-10--12------------------------------------------------------------
-------------------------------------------------------------------
-------------------------------------------------------------------
-------------------------------------------------------------------

Transcribed by,
tsunvun86

Written by tsunvun86

October 26, 2010 at 11:49 pm

%d bloggers like this: