Know Music, Know Life

tsunvun86's Guitar Chords & Tabs

Posts Tagged ‘napa

miwa – Napa (intro) Tabs

with one comment


miwa - Napa (intro)

*Capo at 3rd fret

----------------------------------
-3----3--------3-3-----3----3---3-
-0--0-2----0h2---2-----2----2---2-
---------0----------2-----0---0---
-----------------0-----2----------
-3----2---------------------------

--------------------------
-3----3--------3-2--2--3--
-0--0-2----0h2---2--2--2--
---------0----------------
-----------------0-----2--
-3----2-------------------

Transcribed by,
tsunvun86

Written by tsunvun86

March 18, 2013 at 7:07 pm

Posted in Chords & Tabs, Guitar Cover, miwa

Tagged with , , , ,

%d bloggers like this: