Know Music, Know Life

tsunvun86's Guitar Chords & Tabs

Posts Tagged ‘kimi

ZONE – H.A.N.A.B.I ~Kimi ga Ita Natsu~ [Chords & Tabs]

with one comment


ZONE - H.A.N.A.B.I ~Kimi ga Ita Natsu~

F#sus4 - 244422

Intro:
Bb C Am Dm
Gm Am Bb C
Bb C Am Dm
Bb C Am A

Verse:
D Em F#sus4 F# )
Bm E A         } (x2)

Pre-Chorus:
G A F# Bm
G A Bb C 

Chorus:
Bb C Am Dm )
Gm Am Bb C } (x2)

Instrumental:
Bb C Am A

Verse 2:
D Em F#sus4 F#
Bm E A

repeat Pre-Chorus

repeat Chorus

Solo:
C# Eb
Cm Fm
C# Eb F
Asus4 A

Chorus 2:
Bb C Am Dm )
Gm Am Bb C } (x3)

Dm G Bb C
F

Outro:
Bb C Am Dm (x4)
Bb

Intro Solo
-------------------------------------------10--------
-10----------10----13-10-----------------------------
----12----12----12-------12-10----10-12-10----10-----
-------12----------------------10--------------------
-----------------------------------------------------
-----------------------------------------------------

------------------------------------------------------
-10----------10----13-10------------------------------
----12----12----12-------12-10----10-12-10-9----------
-------12----------------------10------------11-11h12-
------------------------------------------------------
------------------------------------------------------

Instrumental Solo:
------------------------------------------------------
-10----------10----13-10------------------------------
----12----12----12-------12-10----10-12-10-9----------
-------12----------------------10------------11-11h12-
------------------------------------------------------
------------------------------------------------------

Solo:
-------------------------------------------------------
-------------------------------------------------------
-----------------------8-8-8---------------------------
-/10-10-10-8-8-8-10-10-------10-10-10-8-8-8-8-8-6-6-6--
-------------------------------------------------------
-------------------------------------------------------

-------------------------------------------------------
-----------------------------------8-8-------8-8-10-10-
-----8-8-8-------------------8-8-8-----10-10-----------
-8-8-------8-8-8-5-5-5/8-8-8---------------------------
-------------------------------------------------------
-------------------------------------------------------

-----------------------11--------------------11--------
-11-11--11/13-13-11-13----13-11-13--13-11-13----13-11--
-------------------------------------------------------
-------------------------------------------------------
-------------------------------------------------------
-------------------------------------------------------

--------------13--------------------11-----------------
-13--13-11-13----13-11-13--13-11-13----13-11-13--13-11-
-------------------------------------------------------
-------------------------------------------------------
-------------------------------------------------------
-------------------------------------------------------

----13-------------------------------------------------
-13----13-11-13--13-11-13--------15--15-15-15-15-15-15-
----------------------------1/14-14--14-14-14-14-14-14-
-------------------------------------------------------
-------------------------------------------------------
-------------------------------------------------------

-----------------------------------------------------
-14--------------------------------------------------
-14--------------------------------------------------
-----------------------------------------------------
-----------------------------------------------------
-----------------------------------------------------

Outro Solo:
---------------------------6-------------------------
-1/5-5--5-5-5-7-5-4--4-4-4---4-3--3-3-3-2-3-5~/17----
-----------------------------------------------------
-----------------------------------------------------
-----------------------------------------------------
-----------------------------------------------------

-------------------------------------------10--------
-10----------10----13-10-----------------------------
----12----12----12-------12-10----10-12-10----10-----(x4)
-------12----------------------10--------------------
-----------------------------------------------------
-----------------------------------------------------

-8--8----8--8-----------------
-10-10---10-10----------------
-10-10---10-10----------------
------------------------------
------------------------------
------------------------------


Transcribed by,
tsunvun86

Written by tsunvun86

November 5, 2010 at 12:10 am

ZONE – secret base ~Kimi ga Kureta Mono~ [Chords]

with one comment


ZONE - secret base ~Kimi ga Kureta Mono~

Intro:
B C# Ebm C# 
B C# Ebm

Chorus 1:
B C# Ebm C#
B C# F# (x2)

Instrumental:
B C# F#  

Verse 1:
B F# Ebm C#  )
B C# Ebm     } (x2)
B C# F# Ebm  )
B C# F#      } (x2)

Chorus 2:
B C# Ebm C# 
B C# Ebm
B C# Ebm C#
B C# F# (x2)

Verse 2:
B C# F# Ebm  )
B C# F#      } (x2)

Chorus 3:
B C# Ebm C#
B C# Ebm
B C# F#

Bridge:
E C# F#
B C# F#
E C# F#
B C# Ebm E
B C# F# 

Chorus 4:
B C# Ebm C#   )
B C# Ebm      } (x3)
B C# Ebm C#
B C# F# 
B C# F# (x2) 

Outro:
B C# Ebm C#
B C# Ebm
repeat until fade out...


Chords by,
tsunvun86

Written by tsunvun86

September 23, 2010 at 9:30 pm

SCANDAL – Taiyou to Kimi Egaku STORY [Chords & Tabs]

leave a comment »


SCANDAL - Taiyou to Kimi Egaku STORY

B/F# - 224442
F#/G - 3443xx
Cmadd11+ - x34543
A/5-(no3) - 567xxx
Bsus2 - x24422

Intro:
F# E Ebm D
C#

Verse 1:
F# G#m Bbm C#m Eb G#m F#/G B/F#
Bm Bbm Ebm
G#m G# C#
F# G#m Bbm C#m Eb G#m F#/G B/F#
C# Bb Ebm F#
B D E F#
B F#

Chorus:
B Bbm Ebm C#
G#m C# F#
C#m F#
B Bbm C#m Cmadd11+
B Bbm Ebm
G#m C# 

Instrumental:
F# E Ebm C#

Verse 2:
F# G#m Bbm C#m Eb G#m F#/G B/F#
C# Bb Ebm F#
B D E F#
B F#

repeat Chorus

F#

Bridge:
D E C#m F#
Bm G
G#m C#

Solo:
B Ebm
F7 Bb Eb
C#

Chorus 2:
B Bbm Ebm C#
G#m C# F#
C#m F#
B G#m A/5-(no3) Bbm C#m Cmadd11+
B Bbm Ebm (x2)
G#m C#

Outro:
F# E Ebm D
C# (x2)
Bsus2

Intro/Outro (MAMI):
---------------------------------------------------------
-11--12-12-11--11--12-12-11--12--14-14-12--12--14-14-12--
-11--11-11-11--11--11-11-11--11--11-11-11--11--11-11-11--
-11--11-11-11--11--11-11-11--11--11-11-11--11--11-11-11--
---------------------------------------------------------
---------------------------------------------------------

----------------------------------------------------------------------------
------------------11-12--12/14-------14-------14-------14-------14----14----
----------11--13------------------------------------------------------------
--11--13-----------------------11-11----11-11----11-11----11-11----11----11-
----------------------------------------------------------------------------
----------------------------------------------------------------------------

1st Verse (MAMI):
 F# G#m Bbm      C#m Eb         G#m F#/G B/F# Bm     Bbm  Ebm    G#m  G#  C#
----------------------------------------------10----------------------------------------
-11-------------------------------------------12------11--12--11--12--13----------------
-11--11--10--11--13--12--13--15--13--15--16-------11--11--11--11--13--13--11--10--------
-----11--8---9---11--13--13--13--13--16--16-------9-----------------------11--11--------
----------------------------------------------------------------------------------------
----------------------------------------------------------------------------------------

Instrumental (MAMI):
--------------------------------------------------------------------------------------------
-11--12-12-11--11--12-12-11--12--14-14-12---14-------14-------14-------14-------14----14----
-11--11-11-11--11--11-11-11--11--11-11-11---------------------------------------------------
-11--11-11-11--11--11-11-11--11--11-11-11------11-11----11-11----11-11----11-11----11----11-
--------------------------------------------------------------------------------------------
--------------------------------------------------------------------------------------------

Solo:
--------------------------------------------------------------------
-11--------11-------11-------11-----------------11---11-------14/16-
-----11-------11-------11-------11--------10-11---------11----------
--------13-------13-------13-------13-/13------------------13-------
--------------------------------------------------------------------
--------------------------------------------------------------------

------------------------------------------14/16-14-------------
------------12-14-14/16-15--15---------------------------------
-/13--13-15----------------------11/13-11----------------------
---------------------------------------------------------------
---------------------------------------------------------------
---------------------------------------------------------------

Chords & Tabs by,
tsunvun86

Written by tsunvun86

September 1, 2010 at 4:12 am

%d bloggers like this: