Know Music, Know Life

tsunvun86's Guitar Chords & Tabs

Posts Tagged ‘it

YUI – Let’s face it [Chords – Draft]

leave a comment »


YUI - Let's face it

AH - Artificial harmonics

Intro:
F#m (x2)
F#m A E A (A-B-B-A-B-A) (x2)
A (A-B-B-A-B-A)

Verse:
F#m A E A (A-B-B-A-B-A) (x4)

Pre-Chorus:
D E C#
A (A-B-B-A-B-A)

Chorus:
F#m A B E
F#m A E B
F#m A B E
F#m E B
D A B
A B

Instrumental :
F#m A E A (A-B-B-A-B-A)
F#m A E F#m

Solo:
A B F#m (x2)
A B

F#m A B E
F#m A E B
F#m A B E
F#m A B

repeat Chorus

Outro:
F#m A E A (A-B-B-A-B-A) (x2)
A (A-B-B-A-B-A) (x2)
F#

Intro/Outro:
Guitar 1
-------2----------2----------2--------------------
---------5----------5----------5---2--4-4-2-4-2---
------------2-2-2------------------2--4-4-2-4-2--- (x2)
-4-4-4------2-2-2------------------2--4-4-2-4-2---
------------0-0-0------2-2-2----------------------
-----------------------0-0-0----------------------
Guitar 2
---------------------------------------------------------------------
---------------------------------------------------------------------
---------------------------------------------------------------------
---------------------------------------------------------------------
---------------------------------------------------------------------
---------------------------------------------------------------------


Solo:
------5------------2------------------------------------/12-9-----------------
------5--------3h4---4-------4b5b4-2---2--4b5b4-2-5/7-------12b14b12p10-12----
-4b6~~~~~6b4-2---------2/4---4b5b4-2---2--4b5b4-2--------------------------11-
-------------------------------------4----------------------------------------
------------------------------------------------------------------------------
------------------------------------------------------------------------------
                                           AH
--------------------4-----2-------2-------------------------------------------
------12-----10---------------4b5-2-4b5b4------2------------------------------
-11\9----9\8----8\4---4\2-----4b5---4b5b4--4-----4-2--------------------------
-----------------------------------------------------4-2----------------------
---------------------------------------------------------4-3-2-0---0h2--------
-----------------------------------------------------------------2------------

-----12/14--14-12-------------12--------------------------------------17b19---
-/10--------------14-13-14-14----14-13-14-13-12-------------------------------
------------------------------------------------14-11-------------------------
------------------------------------------------------14-11-------------------
-------------------------------------------------------------14-12------------
-------------------------------------------------------------------14---------



Transcribed by,
tsunvun86

Written by tsunvun86

October 2, 2011 at 4:07 pm

Posted in Chords & Tabs, YUI

Tagged with , , , , , , , , ,

YUI – I do it [Chords & Tabs]

leave a comment »


YUI - I do it

Intro:
Gm Bb Eb C (x4)

Verse:
Bb Gm Eb F (x2)
Eb Bb
Eb F D

Chorus:
Gm Bb Eb C (x4)

Instrumental:
Gm Bb Eb C (x2)

repeat Verse

repeat Chorus

Solo:
Gm Bb Eb C (x2)

Bridge:
Eb Dm Cm Dm
Eb F Cm
Eb D

repeat Chorus

Outro:
Gm Bb Eb C (x4)
Eb F D/F#


Intro/Instrumental Solo:
---------------------------------------------------------------
-----11--11-10-11-13-10-11-------------------------------------
-/10-10--10-10-10-10-10-10-------------------------------------
----------------------------12/13-13-12-12-10-10-8--7--7--8----
---------------------------------------------------------------
----------------------------10/11-11-10-10-8--8--6--5--5--6----

------------------------------------15-------------------------
-11--11-10-11-13-10-11-----------13----13--5--5/13-13----------
-10--10-10-10-10-10-10----/15-15-----------5--5/12-12----------
---------------------------------------------------------------
---------------------------------------------------------------
---------------------------------------------------------------

Solo:                    
                         A.H(artificial harmonics)
------------------------------------------------------------------------
-/15---6---/15---6---/15-15--------13-11--10h11p10----------------------
--------------------------------12-----------------10-10b12-10b12b10-9--
-----------------------------12-----------------------------------------
------------------------------------------------------------------------
------------------------------------------------------------------------

------------------------------------------------------------------------
--------------5---5-3---8--8-10--10-10-11--11-11-11/13------------------
--------------5---5-3---------------------------------------------------
-------3----3-5-3-5-3---5--5-7---7--7--8---8--8--8/10-------------------
-----5-3--5-------------------------------------------------------------
-3-6--------------------------------------------------------------------


Outro Solo:
---------------------------------------------------------------
-----11--11-10-11-13-10-11-------------------------------------
-/10-10--10-10-10-10-10-10-------------------------------------
----------------------------12/13-13-12-12-10-10-8--7--7--8----
---------------------------------------------------------------
----------------------------10/11-11-10-10-8--8--6--5--5--6----

---------------------------------15----------------------------
-11--11-10-11-13-10-11--------13----13--5--5/13-13-------------
-10--10-10-10-10-10-10----/15-----------5--5/12-12-------------
---------------------------------------------------------------
---------------------------------------------------------------
---------------------------------------------------------------

---------------------------------------------------------------
-11--11-10-11-13-10-11-----------------------------------------
-10--10-10-10-10-10-10-----------------------------------------
------------------------12/13-13-12-12-10-10-8--7--7--8--------
---------------------------------------------------------------
------------------------10/11-11-10-10-8--8--6--5--5--6--------

---------------------------------15----------------------------
-11--11-10-11-13-10-11--------13----13--5--5/13-13-------------
-10--10-10-10-10-10-10----/15-----------5--5/12-12-------------
---------------------------------------------------------------
---------------------------------------------------------------
---------------------------------------------------------------

---------------------------------------------------------------
---------------------------------------------------------------
-8-8-8-8--10-10-10-10--11-11-11-11-----------------------------
---------------------------------------------------------------
-6-6-6-6--8--8--8--8---9--9--9--9------------------------------
---------------------------------------------------------------


Chords & Tabs by,
tsunvun86

Written by tsunvun86

September 1, 2010 at 2:33 am

Posted in Chords & Tabs, Guitar Cover, YUI

Tagged with , , , , , , ,

%d bloggers like this: