Know Music, Know Life

tsunvun86's Guitar Chords & Tabs

Posts Tagged ‘home

YUI – HOW CRAZY YOUR LOVE [Chords & Tabs]

leave a comment »


Tracklist:

  1. HELLO
  2. Separation
  3. Get Back Home
  4. Lock On
  5. U-niform
  6. Cooking
  7. Rain
  8. Good night
  9. YOU
  10. It’s My Life
  11. no Reason
  12. Nobody Knows
  13. Green a.live
Advertisements

Written by tsunvun86

October 30, 2011 at 5:14 pm

YUI – Get Back Home [Chords & Tabs]

leave a comment »


YUI - Get Back Home

G/B - x20033
Dadd11+(no3) - xx0234

Intro:
C Dm Dadd11+(no3) C
Am Em Dm G

Verse:
C F C C G/B
Am F C C G/B
Am G F C G/B
Am F G G

Chorus:
C G/B Am G
F G C E
C G/B Am G
F G C

Instrumental:
C Dm Dadd11+(no3) C 
Am Em Dm G

Verse 2:
C F C C G/B
Am F C C G/B
Am C F C G/B
Am F G G

Chorus 2:
C G/B Am G
F G C E
C Em Am G
F G C

Bridge:
Bb F C C
Bb F G G

repeat Chorus

F G C (x2)

Outro:
C Dm Dadd11+(no3) C
Am Em Dm G
C C


Intro/Instrumental:
 C          Dm      Dadd11+(no3) C     Am        Em        Dm             G
-8--------------1-----4---1-4----0-----8------------------------------------------------
-8--8---8---3-3---3---3-3--------1-----10---10-----8---8------------10-13-12------------
-9----9-----2---------2----------0-----9--9------9---9-9---------10-------12------------
-10---------0---------0----------2-------------------------10/12----------12------------
-10------------------------------3----------------------------------------10------------
-8--------------------------------------------------------------------------------------

Outro:
 C          Dm      Dadd11+(no3) C     Am        Em        Dm             G     C
-8--------------1-----4---1-4----0-----8------------------------------------------------
-8--8---8---3-3---3---3-3--------1-----10---10-----8---8------------10-13-12----5-------
-9----9-----2---------2----------0-----9--9------9---9-9---------10-------12----5-------
-10---------0---------0----------2-------------------------10/12----------12----5-------
-10------------------------------3----------------------------------------10----3-------
-8--------------------------------------------------------------------------------------




Transcribed by,
tsunvun86

Written by tsunvun86

October 30, 2011 at 2:47 am

Posted in Chords & Tabs, YUI

Tagged with , , , , , , , , , ,

%d bloggers like this: