Know Music, Know Life

tsunvun86's Guitar Chords & Tabs

Posts Tagged ‘days

YUI – Good-bye days ~YUI Acoustic Version~ [Chords]

with one comment


YUI - Good-bye days ~YUI Acoustic Version~

Asus2 - x02200
Dsus2 - xx0230
Asus2/F# - 202200

Intro:
F#m E Dsus2 (x2)
E

Verse:
Asus2 E Bm7 Dsus2
Asus2 E Asus2/F# E
Asus2 E Bm7 Dsus2
Asus2 E Asus2/F# Dsus2

Pre-Chorus:
Bm7 C#m7
Dsus2 G E
F#

Chorus:
Dsus2 E Asus2/F# Asus2
Dsus2 E Asus2/F# F#
Dsus2 E Asus2/F# Asus2
Bm7
Bm7 C#m7 Dm7

Instrumental:
F#m E Dm Asus2
F#m E Dsus2
E

repeat Verse

repeat Pre-Chorus

repeat Chorus

Asus2

Bridge
Asus2/F# E Dm Asus2
Asus2/F# E Dsus2 Asus2
Asus2/F# E Dm Asus2
Asus2/F# E Dsus2

repeat Chorus

Outro:
Asus2 E Dsus2
Asus2 E Dsus2 E x2
Asus2 E Dsus2
Dsus2

Transcribed by,
tsunvun86

Written by tsunvun86

March 2, 2012 at 12:16 pm

Girls Dead Monster – Shine Days [Chords & Tabs]

with 3 comments



Girls Dead Monster - Shine Days

Intro:
Dm
Dm Bb C (x2)
Dm Bb Am C
Dm Bb C

Verse:
Dm Bb Am C
Dm Bb C F
Dm Bb Am C
Dm Bb C F

Chorus
G D Em C D (x2)

repeat Verse

Chorus 2
G D Em C D (x4)

Instrumental:
C D Bm
C D Em
C D Bm
C D G

Solo:
G D Em C D (x2)

Bridge:
C D Bm
C D Em
C D Bm
C D G

repeat Chorus 2

Outro:
G D Em C D (x2)
G


Intro:
---8--------------     ---8-------------- ---8--------------     ------------------
-------10---8---6-     -------10---8-6-5- -------10---8---6-     -5-6-5------------
-7---7----5---5---     -7---7----5------- -7---7----5---5---     -------5/7-5-5----
------------------(x7) ------------------ ------------------(x3) ------------------
------------------     ------------------ ------------------     ------------------
------------------     ------------------ ------------------     ------------------

---8--------------     ---8-------------- ---8--------------     ------------------
-------10---8---6-     -------10---8-6-5- -------10---8---6-     -5-6-5-----5-6-8--
-7---7----5---5---     -7---7----5------- -7---7----5---5---     -------5/7--------
------------------(x3) ------------------ ------------------(x2) ------------------
------------------     ------------------ ------------------     ------------------
------------------     ------------------ ------------------     ------------------

-8---8/10\8-8-8--
---8-8/10\8-8-8--
-----------------
-----------------
-----------------
-----------------

Instrumental Solo:
-----10---------------     -----10-----------------------------------
----------12---10---8-     ----------12---10-8-7---------------------
-7/9----9----7----7---     -7/9----9----7----------------------------
----------------------(x3) ------------------------------------------
----------------------     ------------------------------------------
----------------------     ------------------------------------------

-----10---------------     -----10-----------------------------------
----------12---10---8-     ----------12---10---7-7-8--8-8-x-x-8------
-7/9----9----7----7---     -7/9----9----7----7-7-7-7--7-7-x-x-7------
----------------------(x2) ------------------------------------------
----------------------     ------------------------------------------
----------------------     ------------------------------------------

Solo:
----------------------------------------------------------------
-6/8-----8/10--8\7--7-8----10/12-12b13-12b13b12-10\8-7-8--------
-------7----------------7---------------------------------------
----------------------------------------------------------------
----------------------------------------------------------------
----------------------------------------------------------------

----------------------------------------------------------------
----------------------------------------------------------------
-7h9-7----------------------------------------------------------
-------9\7-5-7-5-5-------5---5-7-7b8-7b8b7-5-7-5----------------
-------------------5/7-7---7---------------------7--------------
----------------------------------------------------------------

--------------------------------------------------------------------
-----------------------------------------------------------------15-
-x-x-14b16--14b16--14b16-14-12-14-12-------------12-14-12--14/16-16-
-x-x-0------0------0-----0--0--0--0--12h14-12-14-0--0--0------------
--------------------------------------------------------------------
--------------------------------------------------------------------

-------15-----------------15----------15----17b19-17b19-17b19---
-15-17-15-15-18-15--15h17-15-15-15h17-15-15---------------------
-16-16-------17-------------------------------------------------
----------------------------------------------------------------
----------------------------------------------------------------
----------------------------------------------------------------

-------15-15---15-----------------------------------------------
-15-15-15-15---15-15h17-15--------------------------------------
---------------------------16\14-12-14-12-12-------12----12-----
---------------------------------------------12h14----14--------
----------------------------------------------------------------
----------------------------------------------------------------

----------------------------------------------------------------
----------------------------------------------------------------
-14-14-14-14-14-14-14-14b16b14-12-------------------------------
----------------------------------------------------------------
----------------------------------------------------------------
----------------------------------------------------------------


Outro Solo:
---10---7-------------10---7------------10---7------------10---7--------------
------------10---8-------------8-10-8------------10---8------------10-8-7-----
-7----7---7----7----7----7---7--------7----7---7----7---7----7---7------------
------------------------------------------------------------------------------
------------------------------------------------------------------------------
------------------------------------------------------------------------------

---10---7-------------10---7------------10---7--------------------------------
------------10---8-------------8-10-8------------10---8-7-8-7-----7-8-10------
-7----7---7----7----7----7---7--------7----7---7----7---------7/9-------------
------------------------------------------------------------------------------
------------------------------------------------------------------------------
------------------------------------------------------------------------------

--------------------------------------------------10---------------------------
-10b12--10b12b10-8--8-------8-----8-10-8-10-10b12----10b12b10p8-10-8-----------
-----------------7--7---7h9---7h9----------------------------------------------
-------------------------------------------------------------------------------
-------------------------------------------------------------------------------
-------------------------------------------------------------------------------

-----12-12-12--14--15-15-15-12-15---------------------------------------------------------
-/12-12-12-12--15--15-15-15-12-15--15-15b17-15--------15-------------------15----15/17-15-
------------------------------------------------14/16-16-14-12-14-12-14/16----16----------
------------------------------------------------------------------------------------------
------------------------------------------------------------------------------------------
------------------------------------------------------------------------------------------

-17b19--17b19b17-15--15-15-----------------------------------------------------
-----------------15--15-15---15~\13--12----------------------------------------
----------------------------------------12-------------------------------------
-------------------------------------------------------------------------------
-------------------------------------------------------------------------------
-------------------------------------------------------------------------------


Transcribed by,
tsunvun86

Written by tsunvun86

October 26, 2010 at 9:10 pm

%d bloggers like this: