Know Music, Know Life

tsunvun86's Guitar Chords & Tabs

Posts Tagged ‘cover

SCANDAL – Kagerou [Chords & Tabs]

with one comment


SCANDAL - Kagerou

C#sus4 - x46674
Bsus4 - x24452
Dsus4 - x57785

Intro:
C#sus4 Bsus4 (x4)

Verse:
A
B C# C#sus4 C# C#sus4
A F#m G#
B C# C#sus4 C# C#sus4
A B C# (x3)
A B

Chorus:
A B G# C#m (x3)
A B G# C#m D

Instrumental:
C#sus4 Bsus4 (x2)

Verse 2:
A
B C# C#sus4 C# C#sus4
A F#m G#
B C# C#sus4 C# C#sus4
A B C# (x3)
D G#

Chorus 2:
A B G# C#m (x3)
A B G# C#m B
A B G# C#m
A B G# C#m D
A B G# C#m
D Eb G#
C# B C# (alternate repeatedly, follow pattern in song)

A B G# C#m (x4)

Chorus 3:
A B G# C#m
A B G# C#m D
A B G# C#m
A B G# C#m B
A B G# C#m
A B G# C#m B

Outro:
C#sus4 Bsus4
C#sus4 Dsus4

Riff at Verse:
----------------------
----------------------
-----4---6---4--------
---6---6---6---6-4-6--
-4--------------------
----------------------

Plucking at Chorus 1:
-------------7-------4-------4----     -------------7-------4-------5-5--
-----5---------7-------4-------5--     ----5----------7-------4-----7-7--
-------6---8---------------6------(x3) ------6----8---------------6-7-7--
---7---------------6--------------     --7----------------6---------7-7--
-------------------------4--------     -------------------------4---5-5--
-5-------7-------4----------------     -5-------7-------4----------------

Plucking at Chorus 2:
-------------7-------4-------4----     -------------7-------4-------5-5--
-----5---------7-------4-------5--     ----5----------7-------4-----7-7--
-------6---8---------------6------(x3) ------6----8---------------6-7-7--
---7---------------6--------------     --7----------------6---------7-7--
-------------------------4--------     -------------------------4---5-5--
-5-------7-------4----------------     -5-------7-------4----------------

Riff at Chorus 3:
-5-4-2---------------------2-4---4----------------------------------------
-------5-4-2-------1-2-4-5-----5---5-4-2----------------------------------
-------------4-2-1-----------------------4-2-1-2-1-2-1--------------------
-------------------------------------------------------4------------------
--------------------------------------------------------------------------
--------------------------------------------------------------------------

-5-4-2---------------------2-4---4-------------------------2-4-----------
-------5-4-2-------1-2-4-5-----5---5-4-2-----------------5-----5---------
-------------4-2-1-----------------------4-2-1-2-1-2-1-2----------------- (x2)
-------------------------------------------------------------------------
-------------------------------------------------------------------------
-------------------------------------------------------------------------

-5-4-2---------------------2-4---4----------------------------------------
-------5-4-2-------1-2-4-5-----5---5-4-2-----------------2-4-5-4----------
-------------4-2-1-----------------------4-2-1-2-1-2-1--------------------
-------------------------------------------------------4------------------
--------------------------------------------------------------------------
--------------------------------------------------------------------------

Transcribed by,
tsunvun86 @ SCANDAL HEAVEN
Advertisements

Written by tsunvun86

November 2, 2010 at 1:59 pm

Girls Dead Monster – Shine Days [Chords & Tabs]

with 3 comments



Girls Dead Monster - Shine Days

Intro:
Dm
Dm Bb C (x2)
Dm Bb Am C
Dm Bb C

Verse:
Dm Bb Am C
Dm Bb C F
Dm Bb Am C
Dm Bb C F

Chorus
G D Em C D (x2)

repeat Verse

Chorus 2
G D Em C D (x4)

Instrumental:
C D Bm
C D Em
C D Bm
C D G

Solo:
G D Em C D (x2)

Bridge:
C D Bm
C D Em
C D Bm
C D G

repeat Chorus 2

Outro:
G D Em C D (x2)
G


Intro:
---8--------------     ---8-------------- ---8--------------     ------------------
-------10---8---6-     -------10---8-6-5- -------10---8---6-     -5-6-5------------
-7---7----5---5---     -7---7----5------- -7---7----5---5---     -------5/7-5-5----
------------------(x7) ------------------ ------------------(x3) ------------------
------------------     ------------------ ------------------     ------------------
------------------     ------------------ ------------------     ------------------

---8--------------     ---8-------------- ---8--------------     ------------------
-------10---8---6-     -------10---8-6-5- -------10---8---6-     -5-6-5-----5-6-8--
-7---7----5---5---     -7---7----5------- -7---7----5---5---     -------5/7--------
------------------(x3) ------------------ ------------------(x2) ------------------
------------------     ------------------ ------------------     ------------------
------------------     ------------------ ------------------     ------------------

-8---8/10\8-8-8--
---8-8/10\8-8-8--
-----------------
-----------------
-----------------
-----------------

Instrumental Solo:
-----10---------------     -----10-----------------------------------
----------12---10---8-     ----------12---10-8-7---------------------
-7/9----9----7----7---     -7/9----9----7----------------------------
----------------------(x3) ------------------------------------------
----------------------     ------------------------------------------
----------------------     ------------------------------------------

-----10---------------     -----10-----------------------------------
----------12---10---8-     ----------12---10---7-7-8--8-8-x-x-8------
-7/9----9----7----7---     -7/9----9----7----7-7-7-7--7-7-x-x-7------
----------------------(x2) ------------------------------------------
----------------------     ------------------------------------------
----------------------     ------------------------------------------

Solo:
----------------------------------------------------------------
-6/8-----8/10--8\7--7-8----10/12-12b13-12b13b12-10\8-7-8--------
-------7----------------7---------------------------------------
----------------------------------------------------------------
----------------------------------------------------------------
----------------------------------------------------------------

----------------------------------------------------------------
----------------------------------------------------------------
-7h9-7----------------------------------------------------------
-------9\7-5-7-5-5-------5---5-7-7b8-7b8b7-5-7-5----------------
-------------------5/7-7---7---------------------7--------------
----------------------------------------------------------------

--------------------------------------------------------------------
-----------------------------------------------------------------15-
-x-x-14b16--14b16--14b16-14-12-14-12-------------12-14-12--14/16-16-
-x-x-0------0------0-----0--0--0--0--12h14-12-14-0--0--0------------
--------------------------------------------------------------------
--------------------------------------------------------------------

-------15-----------------15----------15----17b19-17b19-17b19---
-15-17-15-15-18-15--15h17-15-15-15h17-15-15---------------------
-16-16-------17-------------------------------------------------
----------------------------------------------------------------
----------------------------------------------------------------
----------------------------------------------------------------

-------15-15---15-----------------------------------------------
-15-15-15-15---15-15h17-15--------------------------------------
---------------------------16\14-12-14-12-12-------12----12-----
---------------------------------------------12h14----14--------
----------------------------------------------------------------
----------------------------------------------------------------

----------------------------------------------------------------
----------------------------------------------------------------
-14-14-14-14-14-14-14-14b16b14-12-------------------------------
----------------------------------------------------------------
----------------------------------------------------------------
----------------------------------------------------------------


Outro Solo:
---10---7-------------10---7------------10---7------------10---7--------------
------------10---8-------------8-10-8------------10---8------------10-8-7-----
-7----7---7----7----7----7---7--------7----7---7----7---7----7---7------------
------------------------------------------------------------------------------
------------------------------------------------------------------------------
------------------------------------------------------------------------------

---10---7-------------10---7------------10---7--------------------------------
------------10---8-------------8-10-8------------10---8-7-8-7-----7-8-10------
-7----7---7----7----7----7---7--------7----7---7----7---------7/9-------------
------------------------------------------------------------------------------
------------------------------------------------------------------------------
------------------------------------------------------------------------------

--------------------------------------------------10---------------------------
-10b12--10b12b10-8--8-------8-----8-10-8-10-10b12----10b12b10p8-10-8-----------
-----------------7--7---7h9---7h9----------------------------------------------
-------------------------------------------------------------------------------
-------------------------------------------------------------------------------
-------------------------------------------------------------------------------

-----12-12-12--14--15-15-15-12-15---------------------------------------------------------
-/12-12-12-12--15--15-15-15-12-15--15-15b17-15--------15-------------------15----15/17-15-
------------------------------------------------14/16-16-14-12-14-12-14/16----16----------
------------------------------------------------------------------------------------------
------------------------------------------------------------------------------------------
------------------------------------------------------------------------------------------

-17b19--17b19b17-15--15-15-----------------------------------------------------
-----------------15--15-15---15~\13--12----------------------------------------
----------------------------------------12-------------------------------------
-------------------------------------------------------------------------------
-------------------------------------------------------------------------------
-------------------------------------------------------------------------------


Transcribed by,
tsunvun86

Written by tsunvun86

October 26, 2010 at 9:10 pm

GLAY – More Than Love [solo cover]

leave a comment »


Written by tsunvun86

October 16, 2010 at 7:20 pm

Posted in GLAY, Guitar Cover

Tagged with , , , , ,

YUI – Sea [Chords & Tabs]

leave a comment »


YUI - Sea

Intro:
C
C

e-----------------------------------------------
B-1-3-1-0--3-1-------------1-3-1-0--3-1---------
G-0-------------0-0h2-0----0------------0-0h2-0-
D-----------------------------------------------
A-----------------------------------------------
E-----------------------------------------------

Verse:
C G F G 
Am G F G
Bb F C G F 
F

Chorus:
C G F G 
Am G F G
C G F G 
Am G F G

C

e-----------------------
B-1-3-1-0--3-1----------
G-0-------------0-0h2-0-
D-----------------------
A-----------------------
E-----------------------

repeat Verse

repeat Chorus

Bridge
F G Am C (x2)
G G G G
G G

Solo:
C G F G
Am G F G

e---------------------------------------------------------
B----------------------------6/8-6-5b6b5------------------
G-----5---5-7-7b8b7p5-7---5--------------5--5--4-5-5h7-5--
D-5/7---7---------------7---------------------------------
A---------------------------------------------------------
E---------------------------------------------------------

e------------8---------------------------------------
B----------------------------------------------------
G-----5--7b9---7b9b7-5-------------------------------
D-5/7------------------------------------------------
A----------------------------------------------------
E----------------------------------------------------

repeat Chorus

C G F G (x2)

Outro:
C
C

e-----------------------
B-1-3-1-0--3-1----------
G-0-------------0-0h2-0-
D-----------------------
A-----------------------
E-----------------------

C


Transcribed by,
tsunvun86 @ YUI-Lover Forum & Fansite

Written by tsunvun86

October 6, 2010 at 1:28 pm

Posted in Chords & Tabs, Guitar Cover, YUI

Tagged with , , , , ,

SCANDAL – Hajimete no Chuu [Chords & Tabs]

with 2 comments


SCANDAL - Hajimete no Chuu [cover]

Intro:
Bb Eb F (x2)

Verse:
Bb Eb F Bb (x2)

Pre-Chorus:
Dm Gm (x2)
Cm Dm Eb (x2)
Eb F

Chorus:
Bb Dm Gm Dm   )
Eb Dm Gm Cm F } (x2)

Instrumental:
Bb Eb F (x2)

repeat Verse

repeat Pre-Chorus

repeat Chorus

Bb

[CLAP]

repeat Chorus

repeat Instrumental

Outro:
Bb Eb F (x4)
Bb


Intro/Instrumental Solo:
----------------------------
---------------4------------
-3--5-3-5-3------5/7-5--5-5-
-------------5--------------
----------------------------
----------------------------

Transcribed by,
tsunvun86

Written by tsunvun86

October 4, 2010 at 11:58 pm

SCANDAL – SCANDAL Nanka Buttobase [Chords & Tabs]

with 2 comments


Edit: I had a typo is Chorus 3. Fixed. Sorry about that OTL

SCANDAL - SCANDAL Nanka Buttobase

Bb/F - 113331 Emaj7 - 021100 or 022444 or 079897 Bb/D - x5333x or x5876x Intro: Bb Ebm C# B Bb Ebm C# B Bb B Bb Verse: Ebm G#m Bb Ebm (x2) Pre-Chorus: G#m Bb C# F# G#m F# Emaj7 Bb/F Bb Chorus: Ebm G#m C# F# Bb G#m F# G#m Fm Bb B Bb (x2) Ebm G#m Ebm G#m Bb Ebm Instrumental: Ebm C# Bb Bb B Bb repeat Verse repeat Pre-Chorus Chorus 2: Ebm G#m C# F# Bb G#m F# G#m Fm Bb B Bb (x2) Ebm G#m Ebm G#m Bb Ebm F# G#m Bb Solo: F#m C# E B D C# F#m C# E B --- --- --- ---- ---- ---- ---- ---- --- --- --- ---- ---- ---- ---- ---- -6-(x4) -8-(x4) -9-(x4) -10-(x4) -11-(x4) -13-(x4) -14-(x4) -15-(x4) --- --- --- ---- ---- ---- ---- ---- -4- -6- -7- -8-- -9-- -11- -12- -13- --- --- --- ---- ---- ---- ---- ---- Bb Chorus 3: G#m F# G#m Fm Bb B Bb (x2) Ebm C# B Bb Bb/D F# G#m Bb Bb Ebm F# G#m Bb (x2) Outro: Ebm C# B Bb (x2) Emaj7 Ebm Intro Solo: Guitar 1 ---- -------------------------------------------14---------------------------------- -14- --------------11-11-14b16-14-14b16--14--------16------------------------------- -13-(x16) --------11-13--------------------------/15-------------------11-14-13-11-13/15- ---- -/13-13---------------------------------------------------13------------------- -13- -------------------------------------------------14-14-14---------------------- ---- ------------------------------------------------------------------------------- --------------------------------------------------------14---------------------------- -14-14-14-14---------------11-11-14b16-14-14b16--14--------16------------------------- -13-13-13-13---------11-13--------------------------/15-------------------11-14-13-11- --------------/13-13---------------------------------------------------13------------- -13-13-13-13--------------------------------------------------14-14-14---------------- -------------------------------------------------------------------------------------- -------------- -------------- -15-15-16-15-- -15-15-16-15-- -13-13-14-13-- -------------- Guitar 2 -9- --------------------------------------------------------9-9-9-9-- -9- --------------------------------------------------------9-9-9-9-- ---(x16) ----------3-3-6b8-6-6b8--6--/3----------------------------------- -8- ------4-6----------------------4-----------4-7-6-4-6/8--8-8-8-8-- --- -/6-6----------------------------6-------6----------------------- --- -----------------------------------7-7-7------------------------- ------------------------------------------------------------ -------------------------------7---------------------------- ----------3-3-6b8-6-6b8--6-------7-------------------------- ------4-6-------------------/8-------------4-7-6-4--8-8-9-8- -/6-6------------------------------------6----------8-8-9-8- -----------------------------------7-7-7------------6-6-7-6- Instrumental Solo: Guitar 1 -------------------------------------------14------------------------------------------- --------------11-11-14b16-14-14b16--14--------16---------------------------/15-15-16-15- --------11-13--------------------------/15-------7-7--7-7--7-7--7-7--7--7--/15-15-16-15- -/13-13------------------------------------------8-8--8-8--8-8--8-8--8--8--------------- ---------------------------------------------------------------------------------------- ---------------------------------------------------------------------------------------- Guitar 2 ---------------------------------------------------------------------------------------- ---------------------------------------------------------------------------------------- ----------3-3-6b8-6-6b8--6--/3---------------------------------------------------------- ------4-6----------------------4-----------4-7-6-4-8-8--8-8--8-8--8-8--8--8--8--8--9--8- -/6-6----------------------------6-------6---------8-8--8-8--8-8--8-8--8--8--8--8--9--8- -----------------------------------7-7-7-----------6-6--6-6--6-6--6-6--6--6--6--6--7--6- Solo: ----------12/14-13----------10/12-11-------------------------------------------------- ------10----------------10-------------/15-15-15-15-14h15-15-15-15-14--12------12--14- -/11----------------/9-----------------------------------------------------14--------- -------------------------------------------------------------------------------------- -------------------------------------------------------------------------------------- -------------------------------------------------------------------------------------- ----------12/14-13----------10/12-11------ ---- ---- ---- ---- -14- ------10----------------10------------/14- -14-(x7) -16-(x8) -17-(x8) -18-(x8) ----(x8) -/11----------------/9-------------------- ---- ---- ---- ---- ---- ------------------------------------------ ---- ---- ---- ---- ---- ------------------------------------------ ---- ---- ---- ---- ---- ------------------------------------------ ---- ---- ---- ---- ---- -16- -/17- -17- -18--- ------------ ----(x8) ----- ----(x7) ------ -14--14--14- ---- ----- ---- ------ -13--13--13-(x3) ---- ----- ---- ------ ------------ ---- ----- ---- ------ -13--13--13- ---- ----- ---- ------ ------------ Outro Solo: Guitar 1 -------------------------------------------14---------------------------------- --------------11-11-14b16-14-14b16--14--------16------------------------------- --------11-13--------------------------/15-------------------11-14-13-11-13/15- -/13-13---------------------------------------------------13------------------- -------------------------------------------------14-14-14---------------------- ------------------------------------------------------------------------------- --------------------------------------------------------14---------------------------- -14-14-14-14---------------11-11-14b16-14-14b16--14--------16------------------------- -13-13-13-13---------11-13--------------------------/15-------------------11-14-13-11- --------------/13-13---------------------------------------------------13------------- -13-13-13-13--------------------------------------------------14-14-14---------------- -------------------------------------------------------------------------------------- ---- -/11---------------------------- -14- -----12------------------------- -13-(x16) --------13-9-8----8-8-8--------- ---- ------------------8-8-8--------- -13- ------------------6-6-6--------- ---- -------------------------------- Guitar 2 --------------------------------------------------------9-9-9-9-- --------------------------------------------------------9-9-9-9-- ----------3-3-6b8-6-6b8--6--/3----------------------------------- ------4-6----------------------4-----------4-7-6-4-6/8--8-8-8-8-- -/6-6----------------------------6-------6----------------------- -----------------------------------7-7-7------------------------- --------------------------------------------------- -9- --------------------------------------------------- -9- ----------3-3-6b8-6-6b8--6--/3--------------------- ---(x16) ------4-6----------------------4-----------4-7-6-4- -8- -/6-6----------------------------6-------6--------- --- -----------------------------------7-7-7----------- --- -------- -------- -8-8-8-- -8-8-8-- -6-6-6-- -------- Transcribed by, tsunvun86 @ SCANDAL HEAVEN

Written by tsunvun86

October 1, 2010 at 3:40 pm

YUI – Rain [Chords & Tabs]

with 8 comments



Rain solo cover<—–*click for cover*

YUI - Rain

Intro:
Am
Dm C Bb C (x2)

Verse:
Dm C Bb C (x2)

Pre-Chorus:
Gm Bb F C
Gm Bb Gm A
Bb C

Chorus:
Bb C Dm F
Gm Am Bb A7
Bb C Dm F
Gm Am Bb C
Dm

repeat Verse

repeat Pre-Chorus

repeat Chorus

Bridge:
Bb
F C
Bb
F A

Solo:
Bb C Dm F
Gm Am Bb A7

repeat Chorus

Outro:
Dm C Bb C
Dm C Bb C
Dm

Intro Solo:
------------------10----------------------------------------8-----
-------10------10-10--10---------------------------------10----10-
-10-12-----12------------12--10-9---10-9-10-10/12-10--10----------
------------------------------------------------------------------
------------------------------------------------------------------
------------------------------------------------------------------

------------------10-------------------------10----10---------------
-------10------10-10--10---------------------10----10---13-13-13-13-
-10-12-----12------------12--10-9---10----10----10------12-12-12-12-
---------------------------------------12---------------------------
--------------------------------------------------------------------
--------------------------------------------------------------------

Pre-Chorus 1:
 Gm           Bb           F            C
-------5-3--------6-6------------1--------------8---------------
---3-------3-----------------1-----1----------------------------
-----3----------7-----7--------2-----2-----9------9-------------
-5------------8---------8--3-----------------10-----10----------
----------------------------------------10----------------------
----------------------------------------------------------------

 Gm           Bb           Gm
-------5----------6--------------5------------------------------
---3-----3-------------------3-----3----------------------------
-----3-----3----7---7----------3-----3--------------------------
-5--------------------8----5------------------------------------
--------------8---------8---------------------------------------
----------------------------------------------------------------

Lick at the end of first Chorus:
----------------------------------------------------------------
----------------------------------------------------------------
-9b10b9-7-5-----------------------------------------------------
------------7\5-3-----------------------------------------------
-------------------5p3h5----------------------------------------
----------------------------------------------------------------

Pre-Chorus 2:
 Gm           Bb           F            C
-------5----------6-6------------3-1----------------------------
---3-----3-------------------1-------1----5---6p5---------------
-----3-----3----7-----7----2---2------------5-----5-------------
-5------------8---------8---------------5-----------5-----------
----------------------------------------------------------------
----------------------------------------------------------------

 Gm           Bb           Gm
-------5----------6-6------------5------------------------------
---3-----3-------------------3-----3----------------------------
-----3-----3----7-----7--------3-----3--------------------------
-5----------------------8--5------------------------------------
--------------8-------------------------------------------------
----------------------------------------------------------------

Solo:
-----------------------------------------------12b13--12--10-------------
--------------------11---------------------------------------10-13b15b13-
----9-------9-10-12-----10------9--10--12--10----------------------------
-11---11-12-----------------12-------------------------------------------
-------------------------------------------------------------------------
-------------------------------------------------------------------------

---------------------------15----13----12------------13-------------------
-----------------------/13----13----13----13---13b15----13b15b13-10-------
-/15-x-x-14-x-x-15-17-----------------------------------------------12-10-
--------------------------------------------------------------------------
--------------------------------------------------------------------------
--------------------------------------------------------------------------

----------------------------------------------------------------
----------------------------------------------------------------
-12b14-12-10-9--------------------------------------------------
----------------11----------------------------------------------
----------------------------------------------------------------
----------------------------------------------------------------

Outro Solo:
------------------10----------------------------------------8-----
-------10------10-10--10---------------------------------10----10-
-10-12-----12------------12--10-9---10-9-10-10/12-10--10----------
------------------------------------------------------------------
------------------------------------------------------------------
------------------------------------------------------------------

------------------10-------------------------10-------------------
-------10------10-10--10---------------------10-------13-13-13----
-10-12-----12------------12--10-9---10----10-----10---12-12-12----
---------------------------------------12-------------------------
------------------------------------------------------------------
------------------------------------------------------------------

Transcribed by,
tsunvun86 @ YUI-Lover Forum & Fansite

Written by tsunvun86

September 26, 2010 at 6:28 pm

Posted in Chords & Tabs, Guitar Cover, YUI

Tagged with , , , , ,

%d bloggers like this: