Know Music, Know Life

tsunvun86's Guitar Chords & Tabs

Posts Tagged ‘change

miwa – chAngE [Chords & Tabs]

with 3 comments


miwa - chAngE

C/E - X7555X
Bb/D - X5333X

Intro:
Em C G D (x2)
C
C#m A E B (x2)

Verse:
C#m A E B (x4)

Pre-Chorus:
A B
C#m B A G#m F#m
B

Chorus:
Em C G D
Bm C G D
Em C G D
C D
Em C D
C

Instrumental:
C#m A E B

repeat Verse

repeat Pre-Chorus

repeat Chorus

Solo:
C#m A E B (x2)

Bridge:
C D Em
C D B
Em C G D (x2)

Chorus 2:
Fm C# G# Eb
Cm C# G# Eb
Fm C# G# Eb
C# Eb
Fm C# Eb
Fm C/E Eb Bb/D C# Eb
C#

Outro:
Dm Bb F C (x2)

Intro/Instrumental Solo:
--------------------------------------------------------------------
---------------9--9-------9------9--------9------------------9------
--------------------11-9----11-9---11--9----11-9-11--11-9-11---11-9- (x2)
-/11--11-9-11-------------------------------------------------------
--------------------------------------------------------------------
--------------------------------------------------------------------

Lick at Pre-Chorus:
--------------------------------------------------------------
--------------------------------------------------------------
------9-11--11/16---11--9-11-9-8------------------------------
-/11----------------------------------------------------------
--------------------------------------------------------------
--------------------------------------------------------------

Chorus Lead:
----7--------------------------------------------------------------
------8-------8-------------10-----------10-------7---------8------
-/9-----9-------9--------12----12-----11----11------7---------9----
----------/10-----10-/12----------/12----------/9-----9-/10-----10-
-------------------------------------------------------------------
-------------------------------------------------------------------

---------------------------------7------------------------------------------
--------10-------------------------8-------8-------------10-----------10----
-----12----12-----11-12-11----/9-----9-------9--------12----12-----11----11-
-/12----------/12----------12----------/10-----10-/12----------/12----------
----------------------------------------------------------------------------
----------------------------------------------------------------------------

Solo:
-16----16-16-16----16-16-16----16-----19-16-16-19-16-16-19-16-16-19-16-16--19b21-19b21-19b21-19b21--19b22-
-19b21~21~21-19b21~21~21-19b21-19b21----------------------------------------------------------------------
----------------------------------------------------------------------------------------------------------
----------------------------------------------------------------------------------------------------------
----------------------------------------------------------------------------------------------------------
----------------------------------------------------------------------------------------------------------

-x-x-x-x-x------------------------------------------------------------------------------------------------
-x-x-x-x-x-14-14---------------------------------------------------------------------17-17-17-17-17-------
-x-x-x-x-x-14-14-16------------------------------------------------------------------16-16-16-16-16-------
-x-x-x-x-x-----------------------------14-14-18-18-18-18-18--------------14-14-18-18----------------------
-x-x-x-x-x-----------------14-14-16-16-----------------------14-14-16-16----------------------------------
-x-x-x-x-x-----------16-16--------------------------------------------------------------------------------

-19----19-19----19-19-19-19-19-19-19-19-19-19-19b21~21~21~21~21~21~21-
----17-------17-------17-17-17-17-17-17-17-17-17b19~19~19~19~19~19~19-
----------------------------------------------------------------------
----------------------------------------------------------------------
----------------------------------------------------------------------
----------------------------------------------------------------------

Chorus 2 Lead:
-----8------------------------------------------------------------------------------------------------
-------9--------9--------------11-----------11--------8----------9--------------11--------------------
-/10-----10-------10--------13----13-----12----12-------8----------10--------13----13-----12-13-12----
------------/11------11-/13----------/13----------/10-----10-/11------11-/13----------/13----------13-
------------------------------------------------------------------------------------------------------
------------------------------------------------------------------------------------------------------

-----8--------------------------------------------------------
-------9--------9--------------11-----------11----------------
-/10-----10-------10--------13----13-----12----12-------------
------------/11------11-/13----------/13----------------------
--------------------------------------------------------------
--------------------------------------------------------------

Outro Solo:
-----------------------------------------------------------------------------------------
----------------10--10--------10-------13b15b13---------------------------------10-------
-----------------------12-10-----12-10----------10-12--12b14b12-10-12--12-10-12----12-10-
-/12--12-10-12---------------------------------------------------------------------------
-----------------------------------------------------------------------------------------
-----------------------------------------------------------------------------------------

-----------------------------------------------------------------------------------------
----------------10--10--------10-------13b15b13----13b15b13------------------------------
-----------------------12-10-----12-10----------10----------10--12--12-10-12-12b14b12-10-
-/12--12-10-12---------------------------------------------------------------------------
-----------------------------------------------------------------------------------------
-----------------------------------------------------------------------------------------

Chords & Tabs by,
tsunvun86

Written by tsunvun86

August 31, 2010 at 4:05 pm

%d bloggers like this: