Know Music, Know Life

tsunvun86's Guitar Chords & Tabs

Posts Tagged ‘bleach

ROOKiEZ is PUNK’D – Song for… [Chords & Tabs]

with one comment


Kind of incomplete.. Oh well… Forgive me OTL

 
ROOKiES is PUNK'D - Song for...

Intro:
D D
D F#m Bm G A
D F#m F# Bm
D F#m Bm G A
D F#m F# Bm G A

Verse 1:
D F#m Bm G A
D F#m F# Bm G A

Chorus 1:
D D G G
Bm A G A

Verse 2:
D F#m Bm G A
D F#m F# Bm G A
D F#m G G

Pre-Chorus:
Em F#m G A

Chorus 2:
D D G G  )
Bm A G A } (x2)

Bridge:
G A D D (x2)
G A Bm A G F#m Em
G A

repeat Chorus 2

G

Outro:
D F#m Bm G A
D F#m F# Bm G A
D

Intro:
 Dsus2
---------0---------
-----3-----3---3---
---2---2-----2---2- (x9)
-0-----------------
-------------------
-------------------

(repeat this part at Outro)
-------------------------------------------------
-------------------------------------------------
-7-7-7-7-7-7-7-7-7-7/9-9\7-7-7/11-11-11-11\7-7-7-
------------------------------------------------- (x4)
-5-5-5-5-5-5-5-5-5-5/7-7\5-7-5/9--9--9--9\5--5-5-
-------------------------------------------------

Verse 1/Verse 2:

-------5-----------------5-------      -------5-----------------5-
---5------5----------------5-----      ---5------5----------------
-----7-------7-----6h7-------7---      -----7-------7-----6h7-----
-7---------------7-----7-------7- (x3) -7---------------7-----7---
---------------------------------      ---------------------------
---------------------------------      ---------------------------

Chorus 1:
-------------------------------------------------
-------------------------------------------------
-7-7-7-7-7-7-7-7-7-7/9-9\7-7-7/11-11-11-11\7-7-7-
------------------------------------------------- (x2)
-5-5-5-5-5-5-5-5-5-5/7-7\5-7-5/9--9--9--9\5--5-5-
-------------------------------------------------

-------------------------------------------------------------------------------------
-------------------------------------------------------------------------------------
-/14-14-14-14-x-x-14--12-12-12-11-11-12-12-/14-14-14-14-x-x-14--12-12-12-11-11-12-12-
-------------------------------------------------------------------------------------
-/12-12-12-12-x-x-12--10-10-10-9--9--10-10-/12-12-12-12-x-x-12--10-10-10-9--9--10-10-
-------------------------------------------------------------------------------------

-----------------------
-----------------------
-11~\7-7---7-6--7--7/9-
-----------------------
-9~\5--5---5-4--5--5/7-
-----------------------

Chorus 2:
-------------------------------------------------
-------------------------------------------------
-7-7-7-7-7-7-7-7-7-7/9-9\7-7-7/11-11-11-11\7-7-7-
------------------------------------------------- (x2)
-5-5-5-5-5-5-5-5-5-5/7-7\5-7-5/9--9--9--9\5--5-5-
-------------------------------------------------

-------------------------------------------------------------------------------------
-------------------------------------------------------------------------------------
-/14-14-14-14-x-x-14--12-12-12-11-11-12-12-/14-14-14-14-x-x-14--12-12-12-11-11-12-12-
-------------------------------------------------------------------------------------
-/12-12-12-12-x-x-12--10-10-10-9--9--10-10-/12-12-12-12-x-x-12--10-10-10-9--9--10-10-
-------------------------------------------------------------------------------------

-----------------------
-----------------------
-11~\7-7---7-6--7--7/9-
-----------------------
-9~\5--5---5-4--5--5/7-
-----------------------

-------------------------------------------------
-------------------------------------------------
-7-7-7-7-7-7-7-7-7-7/9-9\7-7-7/11-11-11-11\7-7-7-
------------------------------------------------- (x2)
-5-5-5-5-5-5-5-5-5-5/7-7\5-7-5/9--9--9--9\5--5-5-
-------------------------------------------------

-------------------------------------------------------------------------------------
-------------------------------------------------------------------------------------
-/14-14-14-14-x-x-14--12-12-12-11-11-12-12-/14-14-14-14-x-x-14--12-12-12-11-11-12-12-
-------------------------------------------------------------------------------------
-/12-12-12-12-x-x-12--10-10-10-9--9--10-10-/12-12-12-12-x-x-12--10-10-10-9--9--10-10-
-------------------------------------------------------------------------------------

-----------------------
-----------------------
-11~\7-7--7/9----14----
-----------------------
-9~\5--5--5/7----12----
-----------------------

Transcribed by,
tsunvun86

Written by tsunvun86

October 22, 2011 at 9:27 pm

SCANDAL – HARUKAZE [Chords & Tabs]

with 2 comments


SCANDAL - HARUKAZE

Intro:
E B C#m C#m
A B C#m C#m

Verse:
E B C#m C#m )
A B C#m C#m } (x2)

Pre-Chorus:
A B C#m E (x3)
A A B B

Chorus:
A B C#m E
A B C#m C#m
A B G#m C#m
A B C#m E
A A B B

Instrumental:
E B C#m C#m
A B C#m C#m

repeat Verse

repeat Pre-Chorus

repeat Chorus

Bridge:

A A G#m G#m )
A A B C#m   } (x2)

Solo:
A A G#m G#m
A A B B

Chorus 2:
A B C#m E   )
A B C#m C#m } (x2)
A B G#m C#m
A B C#m E
A A B B

Outro:
E B C#m C#m
A B C#m C#m
E


Intro/Chorus:
-----------------------------------------------------------------
-7h9-7-------7h9-7---------------7h9-7-------7h9-7---------------
-------9-8---------9-8---6---9---------9-8---------9-8---6---8h9-
-----------9-----------9---9---------------9-----------9---9----- 

(x2)
-----------------------------------------------------------------
-----------------------------------------------------------------

Verse (2nd repetition):
 E            B              C#m7         C#m7
---------------------------------------------------------
-------9-------------9-------------9------------12-------
---9------9-----11------11-----9------9-----9-------9----
-9---9--------9----9---------9---9--------9---9----------
---------------------------------------------------------
---------------------------------------------------------
 Amaj7          B            C#m7         C#m7
----------------------7----------------------------------
---------9-------------------------9------------12-------
----9-------9-----8------8-----9------9-----9-------9----
-11---11--------9---9--------9---9--------9---9----------
---------------------------------------------------------
---------------------------------------------------------

Pre-Chorus:
 A             B             C#m           E
---------------------------------------------------------
-------9-------------9-------------9-------------10-9----
---9------10-----9------10-----9------10-----9-----------
-9---9---------9---9---------9---9---------9---9---------
---------------------------------------------------------
---------------------------------------------------------

 A             B             C#m           E
---------------------------------------------------------
-------9-------------9-------------9-------12-10-9-------
---9------10-----9------10-----9------10-----------9-----
-9---9---------9---9---------9---9-----------------------
---------------------------------------------------------
---------------------------------------------------------

 A            B            C#m             E
--------------------7------------------------------------
-------9---------------------------9-----------------9---
---9------9-----9------8------9-------9-----9---9-10---9-
-9---9--------9---9--------10---10--------9---9----------
---------------------------------------------------------
---------------------------------------------------------
 A                      B
------------------------7--7------7-7-7-7----------------
-----10-----9-----------7---------7-7-7-7----------------
---------9-----9--------8-----8---8-8-8-8----------------
-11---------------11-------------------------------------
---------------------------------------------------------
---------------------------------------------------------



Transcribed by,
tsunvun86

image

Written by tsunvun86

October 12, 2011 at 10:23 pm

%d bloggers like this: