Know Music, Know Life

tsunvun86's Guitar Chords & Tabs

Posts Tagged ‘baby

SCANDAL – BURN [Chords & Tabs]

with 2 comments


 
SCANDAL - BURN


Intro:
Bb C Dm C 
Bb C Dm (x3)

Verse:
Bb C (x2)
Bb Dm
Bb Am
Dm C

Chorus:
Bb C Dm (x3)
Am
Bb C Dm (x3)
Bb C

Instrumental:
Bb C Dm C

Verse 2:
Bb C
Bb Dm
Bb Am
Dm C

repeat Chorus

Solo:
Bb C Dm (x2)
Bb C Am Dm
Bb C

repeat Chorus

Outro:
Bb Eb C# F# G#
Bb Eb C# F# F
Bb Eb C# F# G# (x3)
Bb Eb C# F#
Bb



Intro:
----------------------------------5--x-5-x-x-5-x-x-3--
----------------------------------6--x-6-x-x-6-x-x-5--
-------3--x-3-x-x-5-x-x-----------7--x-7-x-x-7-x-x-5--
-------3--x-3-x-x-5-x-x-3h5-----5-7--x-7-x-x-7-x-x-5--  (x2)
-1-3/5-1--x-1-x-x-3-x-x-----3/5---5--x-5-x-x-5-x-x-3--
------------------------------------------------------

-8--6-5-6-5----------------8--6-5-6-5-----------------
-10-8-6-8-6--6-5--6/8--6---10-8-6-8-6--6-5--6/8--8/10-
-------------7-5--7/9--7---------------7-5--7/9--9/10-
------------------------------------------------------
------------------------------------------------------
------------------------------------------------------

Solo:
-----------------------------------------------------------------------------------
-----------/13--13--11-10------------------------10--------------------------------
-/7-9-10-7----------------12--12b14-12-10-----10----10/12--12--12-10-9-9--9b109-7--
-------------------------------------------12--------------------------------------
-----------------------------------------------------------------------------------
-----------------------------------------------------------------------------------

-----------------------------------------------10------10------10--------12-----12-
-------8/10-8----------8-10b11--10-8-----------------------------------------------
-----7---------------9---------------10h12-10------10------10------10/12-----12----
-7-8------------8-10---------------------------------------------------------------
-----------------------------------------------------------------------------------
-----------------------------------------------------------------------------------

----12-----12-----12-------20-----20-----20----------------------------------------
-----------------------/17-----17-----17-------------------------------------------
-12-----12-----12------------------------------------------------------------------
-----------------------------------------------------------------------------------
-----------------------------------------------------------------------------------
-----------------------------------------------------------------------------------



Transcribed by,
tsunvun86
Advertisements

Written by tsunvun86

August 20, 2011 at 1:48 am

SCANDAL – SCANDAL BABY [Chords & Tabs]

with 6 comments



SCANDAL - SCANDAL BABY

Intro:
C D Em
C D G A
C D Em (x2)
C D Em A
C D G A
C B Em A
C D Em

Verse:
C D Em A
C D G A
C D Em A
C D G
C D Em A
C D G A
C B Em A
C D Em

Pre-Chorus:
Am Bm C G
Am Bm C D C D C
B C B C B

Chorus:
C D Em A
C D G A
C B Em A
C D Em
C D Em A
C D G A
C B Em A
C D Em (x2)

Inst:
C D Em A
C D G A
C B Em A
C D Em

repeat Verse

repeat Pre-Chorus

Solo:
C D Em A
C D G A
C B Em A
C D Em

Bridge:
F C G (x2)
F C D B

repeat Inst

repeat Chorus

Outro:
C D Em A )
C D G A  }  x2
C B Em A )
C D Em   )
C D Em
C


##########################################################################################################
INTRO SOLO

PART 1:
--------------------------------------------------------------------------
--------------------------------------------------------------------------
--------------------------------------------------------------------------
-----5-------7-------9-9-7-7-5-------5-------7----------------------------
-3-3---3-5-5---5-7-7-----------5-3-3---3-5-5---5-5-5-5-5-7-7-7-7----------
-------------------------------------------------3-3-3-3-5-5-5-5----------

--------------------------------------------------------------------------
--------------------------------------------------------------------------
--------------------------------------------------------------------------
-----5-------7-------9-9-7-7-5-------5------------2-2-2-2-----------------
-3-3---3-5-5---5-7-7-----------5-3-3---3-5-5-5-5--2-2-2-2-----------------
--------------------------------------------------0-0-0-0-----------------

PART 2: (Same for Inst)

Guitar 1:
--------------------------------------------------------------------------------------------------
--------------------------------------------------------------------------------------------------
-14b16b14-12----------12-----12-14-14b16b14-12------14b16b14-12----------12-----------------------
-------------14-12-14-----14-------------------14---------------14-12-14-----14-12----------12-14-
-----------------------------------------------------------------------------------14-12-14-------
--------------------------------------------------------------------------------------------------

-----------------------------------------------------------------------------------------
---------------------------------------------------------------15------------------------
-14b16b14-12----------12-----12-14-14b16b14-12-----14b16b14-12----12-11-12--11-12--11-12-
-------------14-12-14-----14-------------------14----------------------------------------
-----------------------------------------------------------------------------------------
-----------------------------------------------------------------------------------------

Guitar 2:
-------------------------------------------------------------------------
-------------------------------------------------------------------------
-------------------------------------------------------------------------
-7b9b7-5-------5----5-7-7b9b7-5----7b9b7-5-------5-----------------------
---------7-5-7----7-------------7----------7-5-7----7-5-------5-7--------
--------------------------------------------------------7-5-7------------

--------------------------------------------------------------------------
--------------------------------------------------------------------------
-------------------------------------------7------------------------------
-7b9b7-5-------5----5-7-7b9b7-5----7b9b7-5---5-4-5--4-5--4-5--------------
---------7-5-7----7-------------7-----------------------------------------
--------------------------------------------------------------------------

#########################################################################################################
Lick at 1st Verse:

Guitar 1:
-------------------
-------------------
------11-12---11-9-
----9-------9------
-10----------------
-------------------

Guitar 2:
---------------
---------------
---------------
-----4-5---4-2-
---2-----2-----
-3-------------

#########################################################################################################
Main Solo:
-------------------------------------------------------------------------------------------
-7----7----7-----8-----8------7----7----7----5-----7----7-----8------10------12----12------
-9b11-9b11-9b11--11b12-11b12--9b11-9b11-9b11-7b9---9b11-9b11--11b12--12b14---14b16-14b16---
-------------------------------------------------------------------------------------------
-------------------------------------------------------------------------------------------
-------------------------------------------------------------------------------------------

-10-x-x-12-x-x-15-x-x-10-x-x-12-x-x-15-x-x-17-x-x-15---15-x-x-17-x-x-19-20-19-19/22-
----------------------------------------------------------------------------
-7--x-x-9--x-x-12-x-x-7--x-x-9--x-x-12-x-x-14-x-x-12---12-x-x-14-x-x-16-17-16-16/19-
------------------------------------------------------------------------------------
------------------------------------------------------------------------------------
------------------------------------------------------------------------------------

#########################################################################################################
Lick after bridge:
--------------------------------------------------------------------------
--------------------------------------------------------------------------
--------------------------------------------------------------------------
-----5-------7-------9-9-7-7-5-------5-------7----------------------------
-3-3---3-5-5---5-7-7-----------5-3-3---3-5-5---5-5-5-5-5-7-7-7-7----------
-------------------------------------------------3-3-3-3-5-5-5-5----------

--------------------------------------------------------------------------
--------------------------------------------------------------------------
----------------------------------5-5-5-5--7-7-7-7------------------------
-----5---------------9-9-7-7-5----5-5-5-5--7-7-7-7---2-2-2-2--------------
-3-3---3-5-5-6-6-7-7-----------5--3-3-3-3--5-5-5-5---2-2-2-2--------------
-----------------------------------------------------0-0-0-0--------------


#########################################################################################################
Outro Solo:
repeat Intro Solo - Part 2 (x2)

Guitar 1:
--------------------------------------------------------------------------
--------------------------------------------------------------------------
-14b16b14-12----------12-----------5--------------------------------------
-------------14-12-14-----2-2-2-2--5--------------------------------------
--------------------------2-2-2-2--3--------------------------------------
--------------------------0-0-0-0-----------------------------------------

Guitar 2:
--------------------------------------------------------------------------
--------------------------------------------------------------------------
---------------------------5----------------------------------------------
-7b9b7-5-------5--2-2-2-2--5----------------------------------------------
---------7-5-7----2-2-2-2--3----------------------------------------------
------------------0-0-0-0-------------------------------------------------

#########################################################################################################



Chords & Tabs by,
tsunvun86 @ SCANDAL HEAVEN

Written by tsunvun86

September 1, 2010 at 4:59 am

%d bloggers like this: