Know Music, Know Life

tsunvun86's Guitar Chords & Tabs

Posts Tagged ‘acoustic

YUI – fight -acoustic ver.- [Chords]

with 3 comments


YUI - fight -acoustic ver.- <--Click for chords w/ lyrics [pass: fightlyrics]

**Capo at 1st fret
***Scroll down for Non-Capo version

Asus2 - x02200
Dsus2 - xx0230

Intro:
Dsus2 Asus2 E F#m
Dsus2 Asus2 E E

Verse:
Asus2 Dsus2 C#m F#m
Dsus2 E Asus2 G Asus2

Pre-Chorus:
Dsus2 Dm Asus2 F#m E
Dsus2 Dm E E

Chorus:
Asus2 Dsus2 E F#m
Dsus2 Asus2 E E
Asus2 Dsus2 E C# F#m
Dsus2 E

Instrumental:
Dsus2 Asus2 E F#m
Dsus2 Asus2 E E

repeat Verse

repeat Pre-Chorus

Chorus 2:
Asus2 Dsus2 E F#m
Dsus2 Asus2 E E
Asus2 Dsus2 E C# F#m
Dsus2 E Asus2

Bridge:
Dsus2 E Asus2
Dsus2 E F#m
Dsus2 E Asus2
E E

Chorus 3:
Asus2 Dsus2 E F#m
Dsus2 Asus2 E E
Asus2 Dsus2 E C# F#m
Dsus2 E Asus2 (x2)
Asus2

Transcribed by,
tsunvun86

############################################################################

**Non-Capo Version

Ebsus2 - x68866
Bbsus2 - x13311

Intro:
Ebsus2 Bbsus2 F Gm
Ebsus2 Bbsus2 F F

Verse:
Bbsus2 Ebsus2 Dm Gm
Ebsus2 F Bbsus2 G# Bbsus2

Pre-Chorus:
Ebsus2 Ebm Bbsus2 Gm F
Ebsus2 Ebm F F

Chorus:
Bbsus2 Ebsus2 F Gm
Ebsus2 Bbsus2 F F
Bbsus2 Ebsus2 F D Gm
Ebsus2 F

Instrumental:
Ebsus2 Bbsus2 F Gm
Ebsus2 Bbsus2 F F

repeat Verse

repeat Pre-Chorus

Chorus 2:
Bbsus2 Ebsus2 F Gm
Ebsus2 Bbsus2 F F
Bbsus2 Ebsus2 F D Gm
Ebsus2 F Bbsus2

Bridge:
Ebsus2 F Bbsus2
Ebsus2 F Gm
Ebsus2 F Bbsus2
F F

Chorus 3:
Bbsus2 Ebsus2 F Gm
Ebsus2 Bbsus2 F F
Bbsus2 Ebsus2 F D Gm
Ebsus2 F Bbsus2 (x2)
Bbsus2

Transcribed by,
tsunvun86
Advertisements

Written by tsunvun86

May 6, 2012 at 2:46 am

Posted in Chords & Tabs, YUI

Tagged with , , , , , , ,

YUI – Good-bye days ~YUI Acoustic Version~ [Chords]

with one comment


YUI - Good-bye days ~YUI Acoustic Version~

Asus2 - x02200
Dsus2 - xx0230
Asus2/F# - 202200

Intro:
F#m E Dsus2 (x2)
E

Verse:
Asus2 E Bm7 Dsus2
Asus2 E Asus2/F# E
Asus2 E Bm7 Dsus2
Asus2 E Asus2/F# Dsus2

Pre-Chorus:
Bm7 C#m7
Dsus2 G E
F#

Chorus:
Dsus2 E Asus2/F# Asus2
Dsus2 E Asus2/F# F#
Dsus2 E Asus2/F# Asus2
Bm7
Bm7 C#m7 Dm7

Instrumental:
F#m E Dm Asus2
F#m E Dsus2
E

repeat Verse

repeat Pre-Chorus

repeat Chorus

Asus2

Bridge
Asus2/F# E Dm Asus2
Asus2/F# E Dsus2 Asus2
Asus2/F# E Dm Asus2
Asus2/F# E Dsus2

repeat Chorus

Outro:
Asus2 E Dsus2
Asus2 E Dsus2 E x2
Asus2 E Dsus2
Dsus2

Transcribed by,
tsunvun86

Written by tsunvun86

March 2, 2012 at 12:16 pm

YUI – Muffler [Chords & Tabs]

leave a comment »


YUI - Muffler

Intro:
G D C (x2)

Verse:
G D C (x4)
Em G7 Am7 D (x2)

Chorus:
G Am7 C D (x4)

Instrumental:
G D C (x2)

repeat Verse

repeat Chorus

G7 A

Bridge:
Bm Am7 G G7
B7 Am7 C D

repeat Chorus (x2)

Outro:
G D C (x4)
G

Intro/Instrumental Solo:

Guitar 1
-------------------------------------------------------------------
-------------------------------------------------------------------
------------------5-4--------------------7h9-7---------------------
-----5---5--4-5-7-----5-------3/5--4-5-7-------8-7------5----------
-5h7---7----------------7-5-------------------------5h7---7-7/10---
-------------------------------------------------------------------

Outro Solo:

Guitar 1
-------------------------------------------------------------------
-------------------------------------------------------------------
------------------5-4--------------------7h9-7---------------------
-----5---5--4-5-7-----5-------3/5--4-5-7-------8-7------5---5------
-5h7---7----------------7-5-------------------------5h7---7--------
-------------------------------------------------------------------

--------------------------------------------------------
--------------------------------------------------------
-------5-4--------------------7h9-7---------------------
-4-5-7-----5-------3/5--4-5-7-------8-7------5---5------
-------------7-5-------------------------5h7---7--------
--------------------------------------------------------



Chords & Tabs by,
tsunvun86 @ YUI-Lover Forum & Fansite

Written by tsunvun86

September 19, 2010 at 3:08 pm

Posted in Chords & Tabs, YUI

Tagged with , , , , ,

YUI – Namidairo [Chords]

leave a comment »


YUI - Namidairo

Em7 - 022030
G6 - 320030
A7sus4 - x02030
Cadd9 - x32030


Intro:
Em7 G6 A7sus4 Cadd9 (x2)

Verse:
Em7 G6 A7sus4 Cadd9 (x3)
Em7 G6 A7sus4 G

Pre-Chorus:
C G C Dsus2

Chorus:
C D Bm Em
Am D Bm G
C D Bm Em
C D

repeat Intro

repeat Verse

repeat Pre-Chorus

Chorus 2:
C D Bm Em
Am D Bm G
C D Bm Em
C D G G7

Bridge:
C G D Em
C G F D

Chorus 3:
C D Bm Em
Am D Bm G
C D Bm Em
C D 

Outro:
G6 Cadd9 G6 Cadd9

Chords by,
tsunvun86 @ YUI-Lover Forum & Fansite

Written by tsunvun86

September 19, 2010 at 3:03 pm

Posted in Chords & Tabs, YUI

Tagged with , , , ,

Nakashima Mika – Glamourous Sky (Acoustic Version 2005) [Chords & Tabs]

leave a comment »


Nakashima Mika - Glamorous Sky (Acoustic Version)

Asus2 - x02200
C#sus2 - x46644
Bsus2 - x24422

Intro:
 C#m           B
-4-4-------4---2--
-5---5-----5---4--
-6-----6---6---4--
-6-------6-6---4--
-4---------4---2--
------------------
 E          B          A          B
-0---0------2---2------0---0------2-
-0-----0----4-----4----2-----2----4-
-1-------1--4-------4--2-------2--4-
-2-2--------4-4--------2-2--------4-
-2----------2----------0----------2-
-0----------------------------------
C#m B A (Asus2 A)
B

Verse:
E B A B
C#m B A B
E B A B
C#m B F#m
B

Chorus:
A B C#m G#m
A B C#m (C#sus2 C#m)
A B C#m B
A B

A Asus2 A B Bsus2 B (x2)

Bridge:
C#m G#m A
F#m B

Chorus 2:
A B C#m G#m
A B C#m
A B C#m G#m
A B C#m
A B

-----------------------------------
-----------------------------------
-6-6-6-8-8-8-9-9-9-11-11-11-13-14--
-----------------------------------
-4-4-4-6-6-6-7-7-7-9--9--9--11-12--
-----------------------------------


Chorus 3 / Outro:
A B C#m G#m
A B C#m (C#sus2 C#m)
A B C#m B
A B C#m
A B
C#m


Chords & Tabs by,
tsunvun86 

Written by tsunvun86

September 11, 2010 at 9:27 pm

Stereopony – Namida no Mukou~AIMI Acoustic Version~ [Chords & Tabs]

with one comment


Stereo Pony - Namida no Mukou ~AIMI Acoustic Version~

Intro:
F# G# Fm Bbm
Ebm B
Bbm F# G#
Bbm F# F

Verse:
Bbm F# G# (x3)
F# G# Fm Bbm
Ebm B F F

Chorus:
F# G# Fm Bbm
Ebm B
F# F
F# G# Fm Bbm
Ebm B

Instrumental:
Bbm F# G#
Bbm F# F

repeat Verse

Chorus 2:
F# G# Fm Bbm
Ebm B
F# F
F# G#

Solo:
Ebm B F F

Bridge:
Ebm F Bbm Bbm (x2)
Ebm B F F

repeat Chorus

Outro:
Bbm F# G#
Bbm F# F
Bbm F# G#
Bbm F# F
F#


Intro/Instrumental Solo:
-----------------------------------------------------------
---------------------------------------------------------6-
-5-6-5h6p5---6/8--5--6----5-6-5h6p5---6/8--5--6--5h6p5-----
-----------6------------------------6------------------6---
-----------------------------------------------------------
-----------------------------------------------------------

Solo:
-----------------------------------------------------------
-/7--6h7p6--------------------------------8----------10----
-----------6-----------------------------------------------
-------------6--6h8--------------------/8---8--8/10-----10-
---------------------9--8h9p8------------------------------
------------------------------9-9/11-----------------------

----------------------------------------------------
-11-----11--11/13--11/13----------------------------
----------------------------------------------------
-----11-----11/13--11/13----------------------------
----------------------------------------------------
----------------------------------------------------

Outro Solo:
-----------------------------------------------------------
---------------------------------------------------------6-
-5-6-5h6p5---6/8--5--6----5-6-5h6p5---6/8--5--6--5h6p5----- (x2)
-----------6------------------------6------------------6---
-----------------------------------------------------------
-----------------------------------------------------------



Chords & Tabs by,
tsunvun86

Written by tsunvun86

September 10, 2010 at 10:10 pm

%d bloggers like this: