Know Music, Know Life

tsunvun86's Guitar Chords & Tabs

Posts Tagged ‘441

miwa – 441 [Chords & Tabs]

with 2 comments


miwa - 441

Intro:
Asus2 B G#m C#m
Asus2 B E
Asus2 B G#m C#m
D A7 B
Asus2 B Asus2
B
Asus2 B G#m C#m
Asus2 G#m B

Verse:
E B C#m Asus2 B
G#m B
Asus2 B

Pre-Chorus:
C#m Asus2 B (x2)
F#m G#m Am* B
G#

Chorus:
Asus2 B G#m C#m
Asus2 B E
Asus2 B G#m C#m
F#m G#m Asus2 B (x2)

Instrumental:
Asus2 B G#m C#m
Asus2 G#m B

repeat Verse

repeat Pre-Chorus

repeat Chorus

repeat Instrumental

repeat Chorus

Outro:
Asus2 B G#m C#m
Asus2 G#m B
E


Intro:
 Asus2         B             G#m           C#m
-0-----0-------0-----0-------0-----0-------0-----0--------
-----0----0--------4----4--------4----4--------4----4-----
---2--------2----4--------4----4--------4----4--------4---
----------------------------------------------------------
-0-------------2---------------------------4--------------
-----------------------------4----------------------------

 Asus2         B              E             E
-0-----0-------0-----0------------------------------------
-----0----0--------4----4-----7-----7-------10p9----------
---2--------2----4--------4-------9----9---------9------9-
--------------------------------9--------9---------9--9---
-0-------------2------------------------------------------
------------------------------0-------------0-------------

 Asus2         B             G#m           C#m
-0-----0-------0-----0-------0-----0-------0-----0--------
-----0----0--------4----4--------4----4--------4----4-----
---2--------2----4--------4----4--------4----4--------4---
----------------------------------------------------------
-0-------------2---------------------------4--------------
-----------------------------4----------------------------

 D              A7             B              Asus2 B  Asus2
-2-----0h2---------------------0-----0--------0--------0--
-----3-----3-0--2-----0h2----------4----4---------0-4--0--
---2----------------0-------0----4--------4-----2------2--
-0----------------2-------2----------------------------2--
----------------0--------------2--------------0-----2--0--
----------------------------------------------------------

-7---------7------------------------------------------12---------
---7-----7-------------8--9--9/11--9--8----8--9--9/11----11--9---
-----9-9------9-11\9-9------------------9------------------------
-----------------------------------------------------------------
-----------------------------------------------------------------
-----------------------------------------------------------------

-----------------------------------------------------------------
------------------------12-10-9-----9----------------------------
------8--9--9/11--9--8----------11----9-9/11---------------------
-7/9-------------------------------------------------------------
-----------------------------------------------------------------
-----------------------------------------------------------------





Transcribed by,
tsunvun86

Written by tsunvun86

July 5, 2011 at 10:14 pm

Posted in Chords & Tabs, Guitar Cover, miwa

Tagged with , , , ,

%d bloggers like this: