Know Music, Know Life

tsunvun86's Guitar Chords & Tabs

Posts Tagged ‘宝物

FLOWER FLOWER – 宝物 Takaramono (Guitar Tabs)

leave a comment »


The audio above is a COVER of an original song made by FLOWER FLOWER.
It was never our intention to plagiarize YUI’s song or damage in any way her current works. We just decided we wanted to do a tribute of this song, because of its beautiful melody and meaningful lyrics. We certainly hope they will release this song officially in the future and we beg you to support YUI’s new stage by purchasing her music when the time comes.

Vocal: **
Guitar: tsunvun86 (Oz)
Keyboard: pmmonkey (Malaysia)
Bass: Jun (Philippines)
Mix and programming: Kikino! (Chile)

FLOWER FLOWER - Takaramono

Dsus2 - xx0230
Bm7 - x24232
Bm7/A - x04232
F#7 - 242322
s - slap strings

Intro:
 Dsus2       s  G     Dsus2    Bm7   Bm7/A s  G     Dsus2
---0---------x-------------------0---------x---------------------
-3---3-3--3--x--3-----3----3---3---3-3--3--x--3-----3------------
-2-----2--2--x----0-2-2----2---2-----2--2--x----0-2-2-----2------ (x2)
-0-----2--2--x--------0--4-----------------x--------0---4---4----
-------------x-------------4---2-----0--0--x---------------------
-------------x--3--------------------------x--3------------------

Verse:
 Dsus2       s  G     Dsus2    Bm7   Bm7/A s  G     Dsus2
---0---------x-------------------0---------x---------------------
-3---3-3--3--x--3-----3----3---3---3-3--3--x--3-----3------------
-2-----2--2--x----0-2-2----2---2-----2--2--x----0-2-2-----2------ (x2)
-0-----2--2--x--------0--4-----------------x--------0---4---4----
-------------x-------------4---2-----0--0--x---------------------
-------------x--3--------------------------x--3------------------

Instrumental:
 Dsus2       s  G     Dsus2    Bm7   Bm7/A s  G     Dsus2
---0---------x-------------------0---------x---------------------
-3---3-3--3--x--3-----3----3---3---3-3--3--x--3-----3------------
-2-----2--2--x----0-2-2----2---2-----2--2--x----0-2-2-----2------
-0-----2--2--x--------0--4-----------------x--------0---4---4----
-------------x-------------4---2-----0--0--x---------------------
-------------x--3--------------------------x--3------------------

Pre-Chorus:
 Bm7            Bm7/A          G              G
---------------------------------------------------------------
-3-----3--------3-----3--------3-----3--------3-----3----------
-2---2------2---2---2------2---4---4------4---4---4------4-----
---4------4---4---4------4---4---5------5---5---5------5---5---
-2--------------0----------------------------------------------
-------------------------------3--------------3----------------

 Bm7            Bm7/A          G              A
---------------------------------------------------------------
-3-----3--------3-----3--------3-----3-------------------------
-2---2------2---2---2------2---4---4------4---6-----6----------
---4------4---4---4------4---4---5------5---5-7---7------7-----
-2--------------0-------------------------------7------7---7---
-------------------------------3--------------5----------------

Chorus:
 D              F#7            Bm7            Bm7/A          G              A
-------------------------------------------------------------------------------------------
-3-----3--------2-----2--------3-----3--------3-----3--------3-----3-----------------------
-2---2------2---3---3------3---2---2------2---2---2------2---4---4------4---6-----6-------- (x2)
---4------4---4---2------2---2---4------4---4---4------4---4---5------5---5-7---7------7---
-5-----------------------------2--------------0-------------------------------7------7---7-
----------------2--------------------------------------------3--------------5--------------

repeat Instrumental

repeat Verse

repeat Pre-Chorus

repeat Chorus (x2)

Outro:
 D              F#7            Bm7            Bm7/A          G              A
-------------------------------------------------------------------------------------------
-3-----3--------2-----2--------3-----3--------3-----3--------3-----3-----------------------
-2---2------2---3---3------3---2---2------2---2---2------2---4---4------4---6-----6--------
---4------4---4---2------2---2---4------4---4---4------4---4---5------5---5-7---7------7---
-5-----------------------------2--------------0-------------------------------7------7---7-
----------------2--------------------------------------------3--------------5--------------

 G              Gm                 D
-------------------------3---------2---2h5p2----------
-3-----3--------3-----3-----3------3---------3--------
-4---4------4---3---3----------3---2-----------2------
---5------5---5---5----------------0-------------4----
---------------------------------------------------5--
-3--------------3-------------------------------------

Transcribed by,
tsunvun86

Written by tsunvun86

April 3, 2013 at 7:21 pm

%d bloggers like this: