Know Music, Know Life

tsunvun86's Guitar Chords & Tabs

Ieiri Leo – Shine [Chords]

leave a comment »


Ieiri Leo - Shine

Intro:
D E A A

Verse:
D E A A
D E F#m F#m

Pre-Chorus:
D D E E (x2)

Chorus:
F#m D E
A E F#m D E E
F#m D E
A E F#m D E E
D E F#m B
D E

repeat Verse

repeat Pre-Chorus

repeat Chorus

Bridge:
D E C#m F#m
D D E E

repeat Chorus


Solo before Bridge:
-------------------9---------
-----------10------12b14-12--
------9-11----11-------------
-9-11------------------------
-----------------------------
-----------------------------

Outro:
--------------9--------------------------------------
-/9--10\7-7---12b14--12-10-9--9h10p9-----------------
-------------------------------------11-9------------
------------------------------------------11-10-9-11-
-----------------------------------------------------
-----------------------------------------------------


Transcribed by,
tsunvun86
Advertisements

Written by tsunvun86

May 5, 2012 at 12:50 am

Leave a Reply

Fill in your details below or click an icon to log in:

WordPress.com Logo

You are commenting using your WordPress.com account. Log Out / Change )

Twitter picture

You are commenting using your Twitter account. Log Out / Change )

Facebook photo

You are commenting using your Facebook account. Log Out / Change )

Google+ photo

You are commenting using your Google+ account. Log Out / Change )

Connecting to %s

%d bloggers like this: