Know Music, Know Life

tsunvun86's Guitar Chords & Tabs

YUI – Nobody Knows [Chords & Tabs]

with one comment


Full tabs coming later**

YUI - Nobody Knows

A/C# - x4222x

Intro:
D D D D
D C G G (x2)

Verse 1:
D C G G (x4)
Bb F C G

Instrumental 1:
D C G G

Verse 2:
D C G G (x4)
Bb F C G
D

Chorus:
Em7 G D D
Em7 G D A/C# Bm A E G

Instrumental 1:
D C G G (x2)

repeat Verse 2

repeat Chorus

Solo:
D F G (x2)

Bridge:
Bb7 C7 D D (x2)
Bb7 C7 D

Chorus 2:
Em7 G D D
Em7 G D A/C# Bm A
Em7 G D D
Em7 G D A/C# Bm A E G

Outro:
D C G G (x4)
D

Intro:
-----------------------------------------------
-------------------7h8-7--7-5h7----------------
-5h7--7--7-4h5--5-----------------7-5h7p5\4-2--
-0---------0----------------------------------- (x2)
-----------------------------------------------
-----------------------------------------------

-----------------------------------------------      -----
-----------------------------------------------      -----
-5h7--7--7-4h5--5--5-2h4--4--4-----------------      -----
-0---------0---------0---------3h5-5-3h5-5-3h5- (x2) -5/7-
-----------------------------------------------      -----
-----------------------------------------------      -----

Verse 1 Riff:
---------------------      --------------------------------------------
---------------------      --------------------------------------------
---------------------      -----------------5/7------------------------
-3h5-5-3h5-5-3h5-5/7- (x2) -3h5-5-3h5-5-3h5------------3h5-5-3h5-5-3h5-
---------------------      --------------------------------------------
---------------------      --------------------------------------------

Instrumental 1:
----------------------------------------------------
----------------------------------------------------
-5h7--7--7-4h5--5--5-2h4--4--4----------------------
-0---------0---------0---------3h5-5-3h5-5-3h5-5/7--
----------------------------------------------------
----------------------------------------------------

Verse 2 Riff:
-----------------------------------------------------
-----------------------------------------------------
--------------------------------------------5/7------
-3h5-5-3h5-5-3h5-5/7--------3h5-5-3h5-5-3h5----------
-----------------------------------------------------
-----------------------------------------------------

-----------------------------------------------------
-----------------------------------------------------
----------------------5/7b9b7------------------------
-3h5-5-3h5-5-3h5-5/7-----------------3h5-5-3h5-5-3h5-
-----------------------------------------------------
-----------------------------------------------------

Instrumental 2:
--------------------------------------------------------------------------
--------------------------------------------------------------------------
-5h7--7--7-4h5--5--5-2h4--4--4-----------------5h7--7--7-4h5--5--5-2h4--4-
-------------------------------3h5-5-3h5-5-3h5----------------------------
--------------------------------------------------------------------------
--------------------------------------------------------------------------

-------10--------------------------
----------13-10--------------------
-12b14----------12b14b12-10--------
----------------------------12-12--
-----------------------------------
-----------------------------------

Solo:
----------------------------------------------------------------------------------------
----------------------------------------------------------------------------------------
----------------------------------------------------------------------------------------
----------------------------------------------------------------------------------------
----------------------------------------------------------------------------------------
----------------------------------------------------------------------------------------

Outro:
----------------------------------------------------------------------------------------
----------------------------------------------------------------------------------------
----------------------------------------------------------------------------------------
----------------------------------------------------------------------------------------
----------------------------------------------------------------------------------------
----------------------------------------------------------------------------------------


Transcribed by,
tsunvun86
Advertisements

Written by tsunvun86

October 30, 2011 at 5:09 pm

Posted in Chords & Tabs, YUI

Tagged with , , , , , , , , ,

One Response

Subscribe to comments with RSS.


Leave a Reply

Fill in your details below or click an icon to log in:

WordPress.com Logo

You are commenting using your WordPress.com account. Log Out / Change )

Twitter picture

You are commenting using your Twitter account. Log Out / Change )

Facebook photo

You are commenting using your Facebook account. Log Out / Change )

Google+ photo

You are commenting using your Google+ account. Log Out / Change )

Connecting to %s

%d bloggers like this: