Know Music, Know Life

tsunvun86's Guitar Chords & Tabs

ROOKiEZ is PUNK’D – Song for… [Chords & Tabs]

with one comment


Kind of incomplete.. Oh well… Forgive me OTL

 
ROOKiES is PUNK'D - Song for...

Intro:
D D
D F#m Bm G A
D F#m F# Bm
D F#m Bm G A
D F#m F# Bm G A

Verse 1:
D F#m Bm G A
D F#m F# Bm G A

Chorus 1:
D D G G
Bm A G A

Verse 2:
D F#m Bm G A
D F#m F# Bm G A
D F#m G G

Pre-Chorus:
Em F#m G A

Chorus 2:
D D G G  )
Bm A G A } (x2)

Bridge:
G A D D (x2)
G A Bm A G F#m Em
G A

repeat Chorus 2

G

Outro:
D F#m Bm G A
D F#m F# Bm G A
D

Intro:
 Dsus2
---------0---------
-----3-----3---3---
---2---2-----2---2- (x9)
-0-----------------
-------------------
-------------------

(repeat this part at Outro)
-------------------------------------------------
-------------------------------------------------
-7-7-7-7-7-7-7-7-7-7/9-9\7-7-7/11-11-11-11\7-7-7-
------------------------------------------------- (x4)
-5-5-5-5-5-5-5-5-5-5/7-7\5-7-5/9--9--9--9\5--5-5-
-------------------------------------------------

Verse 1/Verse 2:

-------5-----------------5-------      -------5-----------------5-
---5------5----------------5-----      ---5------5----------------
-----7-------7-----6h7-------7---      -----7-------7-----6h7-----
-7---------------7-----7-------7- (x3) -7---------------7-----7---
---------------------------------      ---------------------------
---------------------------------      ---------------------------

Chorus 1:
-------------------------------------------------
-------------------------------------------------
-7-7-7-7-7-7-7-7-7-7/9-9\7-7-7/11-11-11-11\7-7-7-
------------------------------------------------- (x2)
-5-5-5-5-5-5-5-5-5-5/7-7\5-7-5/9--9--9--9\5--5-5-
-------------------------------------------------

-------------------------------------------------------------------------------------
-------------------------------------------------------------------------------------
-/14-14-14-14-x-x-14--12-12-12-11-11-12-12-/14-14-14-14-x-x-14--12-12-12-11-11-12-12-
-------------------------------------------------------------------------------------
-/12-12-12-12-x-x-12--10-10-10-9--9--10-10-/12-12-12-12-x-x-12--10-10-10-9--9--10-10-
-------------------------------------------------------------------------------------

-----------------------
-----------------------
-11~\7-7---7-6--7--7/9-
-----------------------
-9~\5--5---5-4--5--5/7-
-----------------------

Chorus 2:
-------------------------------------------------
-------------------------------------------------
-7-7-7-7-7-7-7-7-7-7/9-9\7-7-7/11-11-11-11\7-7-7-
------------------------------------------------- (x2)
-5-5-5-5-5-5-5-5-5-5/7-7\5-7-5/9--9--9--9\5--5-5-
-------------------------------------------------

-------------------------------------------------------------------------------------
-------------------------------------------------------------------------------------
-/14-14-14-14-x-x-14--12-12-12-11-11-12-12-/14-14-14-14-x-x-14--12-12-12-11-11-12-12-
-------------------------------------------------------------------------------------
-/12-12-12-12-x-x-12--10-10-10-9--9--10-10-/12-12-12-12-x-x-12--10-10-10-9--9--10-10-
-------------------------------------------------------------------------------------

-----------------------
-----------------------
-11~\7-7---7-6--7--7/9-
-----------------------
-9~\5--5---5-4--5--5/7-
-----------------------

-------------------------------------------------
-------------------------------------------------
-7-7-7-7-7-7-7-7-7-7/9-9\7-7-7/11-11-11-11\7-7-7-
------------------------------------------------- (x2)
-5-5-5-5-5-5-5-5-5-5/7-7\5-7-5/9--9--9--9\5--5-5-
-------------------------------------------------

-------------------------------------------------------------------------------------
-------------------------------------------------------------------------------------
-/14-14-14-14-x-x-14--12-12-12-11-11-12-12-/14-14-14-14-x-x-14--12-12-12-11-11-12-12-
-------------------------------------------------------------------------------------
-/12-12-12-12-x-x-12--10-10-10-9--9--10-10-/12-12-12-12-x-x-12--10-10-10-9--9--10-10-
-------------------------------------------------------------------------------------

-----------------------
-----------------------
-11~\7-7--7/9----14----
-----------------------
-9~\5--5--5/7----12----
-----------------------

Transcribed by,
tsunvun86
Advertisements

Written by tsunvun86

October 22, 2011 at 9:27 pm

One Response

Subscribe to comments with RSS.

  1. Thank you for this! 🙂

    Nelizah Blanco Sison

    October 22, 2011 at 9:48 pm


Leave a Reply

Fill in your details below or click an icon to log in:

WordPress.com Logo

You are commenting using your WordPress.com account. Log Out / Change )

Twitter picture

You are commenting using your Twitter account. Log Out / Change )

Facebook photo

You are commenting using your Facebook account. Log Out / Change )

Google+ photo

You are commenting using your Google+ account. Log Out / Change )

Connecting to %s

%d bloggers like this: