Know Music, Know Life

tsunvun86's Guitar Chords & Tabs

SCANDAL – HARUKAZE [Chords & Tabs]

with 2 comments


SCANDAL - HARUKAZE

Intro:
E B C#m C#m
A B C#m C#m

Verse:
E B C#m C#m )
A B C#m C#m } (x2)

Pre-Chorus:
A B C#m E (x3)
A A B B

Chorus:
A B C#m E
A B C#m C#m
A B G#m C#m
A B C#m E
A A B B

Instrumental:
E B C#m C#m
A B C#m C#m

repeat Verse

repeat Pre-Chorus

repeat Chorus

Bridge:

A A G#m G#m )
A A B C#m   } (x2)

Solo:
A A G#m G#m
A A B B

Chorus 2:
A B C#m E   )
A B C#m C#m } (x2)
A B G#m C#m
A B C#m E
A A B B

Outro:
E B C#m C#m
A B C#m C#m
E


Intro/Chorus:
-----------------------------------------------------------------
-7h9-7-------7h9-7---------------7h9-7-------7h9-7---------------
-------9-8---------9-8---6---9---------9-8---------9-8---6---8h9-
-----------9-----------9---9---------------9-----------9---9----- 

(x2)
-----------------------------------------------------------------
-----------------------------------------------------------------

Verse (2nd repetition):
 E            B              C#m7         C#m7
---------------------------------------------------------
-------9-------------9-------------9------------12-------
---9------9-----11------11-----9------9-----9-------9----
-9---9--------9----9---------9---9--------9---9----------
---------------------------------------------------------
---------------------------------------------------------
 Amaj7          B            C#m7         C#m7
----------------------7----------------------------------
---------9-------------------------9------------12-------
----9-------9-----8------8-----9------9-----9-------9----
-11---11--------9---9--------9---9--------9---9----------
---------------------------------------------------------
---------------------------------------------------------

Pre-Chorus:
 A             B             C#m           E
---------------------------------------------------------
-------9-------------9-------------9-------------10-9----
---9------10-----9------10-----9------10-----9-----------
-9---9---------9---9---------9---9---------9---9---------
---------------------------------------------------------
---------------------------------------------------------

 A             B             C#m           E
---------------------------------------------------------
-------9-------------9-------------9-------12-10-9-------
---9------10-----9------10-----9------10-----------9-----
-9---9---------9---9---------9---9-----------------------
---------------------------------------------------------
---------------------------------------------------------

 A            B            C#m             E
--------------------7------------------------------------
-------9---------------------------9-----------------9---
---9------9-----9------8------9-------9-----9---9-10---9-
-9---9--------9---9--------10---10--------9---9----------
---------------------------------------------------------
---------------------------------------------------------
 A                      B
------------------------7--7------7-7-7-7----------------
-----10-----9-----------7---------7-7-7-7----------------
---------9-----9--------8-----8---8-8-8-8----------------
-11---------------11-------------------------------------
---------------------------------------------------------
---------------------------------------------------------



Transcribed by,
tsunvun86

image

Advertisements

Written by tsunvun86

October 12, 2011 at 10:23 pm

2 Responses

Subscribe to comments with RSS.

  1. That was fast xD thanks!

    GavinD

    October 13, 2011 at 3:53 pm

  2. please make the solo guitar for this song……….
    thx

    scandal_loverz

    March 27, 2012 at 9:16 pm


Leave a Reply

Fill in your details below or click an icon to log in:

WordPress.com Logo

You are commenting using your WordPress.com account. Log Out / Change )

Twitter picture

You are commenting using your Twitter account. Log Out / Change )

Facebook photo

You are commenting using your Facebook account. Log Out / Change )

Google+ photo

You are commenting using your Google+ account. Log Out / Change )

Connecting to %s

%d bloggers like this: