Know Music, Know Life

tsunvun86's Guitar Chords & Tabs

YUI – Let’s face it [Chords – Draft]

leave a comment »


YUI - Let's face it

AH - Artificial harmonics

Intro:
F#m (x2)
F#m A E A (A-B-B-A-B-A) (x2)
A (A-B-B-A-B-A)

Verse:
F#m A E A (A-B-B-A-B-A) (x4)

Pre-Chorus:
D E C#
A (A-B-B-A-B-A)

Chorus:
F#m A B E
F#m A E B
F#m A B E
F#m E B
D A B
A B

Instrumental :
F#m A E A (A-B-B-A-B-A)
F#m A E F#m

Solo:
A B F#m (x2)
A B

F#m A B E
F#m A E B
F#m A B E
F#m A B

repeat Chorus

Outro:
F#m A E A (A-B-B-A-B-A) (x2)
A (A-B-B-A-B-A) (x2)
F#

Intro/Outro:
Guitar 1
-------2----------2----------2--------------------
---------5----------5----------5---2--4-4-2-4-2---
------------2-2-2------------------2--4-4-2-4-2--- (x2)
-4-4-4------2-2-2------------------2--4-4-2-4-2---
------------0-0-0------2-2-2----------------------
-----------------------0-0-0----------------------
Guitar 2
---------------------------------------------------------------------
---------------------------------------------------------------------
---------------------------------------------------------------------
---------------------------------------------------------------------
---------------------------------------------------------------------
---------------------------------------------------------------------


Solo:
------5------------2------------------------------------/12-9-----------------
------5--------3h4---4-------4b5b4-2---2--4b5b4-2-5/7-------12b14b12p10-12----
-4b6~~~~~6b4-2---------2/4---4b5b4-2---2--4b5b4-2--------------------------11-
-------------------------------------4----------------------------------------
------------------------------------------------------------------------------
------------------------------------------------------------------------------
                                           AH
--------------------4-----2-------2-------------------------------------------
------12-----10---------------4b5-2-4b5b4------2------------------------------
-11\9----9\8----8\4---4\2-----4b5---4b5b4--4-----4-2--------------------------
-----------------------------------------------------4-2----------------------
---------------------------------------------------------4-3-2-0---0h2--------
-----------------------------------------------------------------2------------

-----12/14--14-12-------------12--------------------------------------17b19---
-/10--------------14-13-14-14----14-13-14-13-12-------------------------------
------------------------------------------------14-11-------------------------
------------------------------------------------------14-11-------------------
-------------------------------------------------------------14-12------------
-------------------------------------------------------------------14---------



Transcribed by,
tsunvun86
Advertisements

Written by tsunvun86

October 2, 2011 at 4:07 pm

Posted in Chords & Tabs, YUI

Tagged with , , , , , , , , ,

Leave a Reply

Fill in your details below or click an icon to log in:

WordPress.com Logo

You are commenting using your WordPress.com account. Log Out / Change )

Twitter picture

You are commenting using your Twitter account. Log Out / Change )

Facebook photo

You are commenting using your Facebook account. Log Out / Change )

Google+ photo

You are commenting using your Google+ account. Log Out / Change )

Connecting to %s

%d bloggers like this: