Know Music, Know Life

tsunvun86's Guitar Chords & Tabs

SCANDAL – BURN [Chords & Tabs]

with 2 comments


 
SCANDAL - BURN


Intro:
Bb C Dm C 
Bb C Dm (x3)

Verse:
Bb C (x2)
Bb Dm
Bb Am
Dm C

Chorus:
Bb C Dm (x3)
Am
Bb C Dm (x3)
Bb C

Instrumental:
Bb C Dm C

Verse 2:
Bb C
Bb Dm
Bb Am
Dm C

repeat Chorus

Solo:
Bb C Dm (x2)
Bb C Am Dm
Bb C

repeat Chorus

Outro:
Bb Eb C# F# G#
Bb Eb C# F# F
Bb Eb C# F# G# (x3)
Bb Eb C# F#
Bb



Intro:
----------------------------------5--x-5-x-x-5-x-x-3--
----------------------------------6--x-6-x-x-6-x-x-5--
-------3--x-3-x-x-5-x-x-----------7--x-7-x-x-7-x-x-5--
-------3--x-3-x-x-5-x-x-3h5-----5-7--x-7-x-x-7-x-x-5--  (x2)
-1-3/5-1--x-1-x-x-3-x-x-----3/5---5--x-5-x-x-5-x-x-3--
------------------------------------------------------

-8--6-5-6-5----------------8--6-5-6-5-----------------
-10-8-6-8-6--6-5--6/8--6---10-8-6-8-6--6-5--6/8--8/10-
-------------7-5--7/9--7---------------7-5--7/9--9/10-
------------------------------------------------------
------------------------------------------------------
------------------------------------------------------

Solo:
-----------------------------------------------------------------------------------
-----------/13--13--11-10------------------------10--------------------------------
-/7-9-10-7----------------12--12b14-12-10-----10----10/12--12--12-10-9-9--9b109-7--
-------------------------------------------12--------------------------------------
-----------------------------------------------------------------------------------
-----------------------------------------------------------------------------------

-----------------------------------------------10------10------10--------12-----12-
-------8/10-8----------8-10b11--10-8-----------------------------------------------
-----7---------------9---------------10h12-10------10------10------10/12-----12----
-7-8------------8-10---------------------------------------------------------------
-----------------------------------------------------------------------------------
-----------------------------------------------------------------------------------

----12-----12-----12-------20-----20-----20----------------------------------------
-----------------------/17-----17-----17-------------------------------------------
-12-----12-----12------------------------------------------------------------------
-----------------------------------------------------------------------------------
-----------------------------------------------------------------------------------
-----------------------------------------------------------------------------------



Transcribed by,
tsunvun86
Advertisements

Written by tsunvun86

August 20, 2011 at 1:48 am

2 Responses

Subscribe to comments with RSS.

  1. thanks a lot 🙂

    jaesoscandal

    August 22, 2011 at 11:23 pm

  2. Hey there tsun! Do you have any plans on transcribing Harukaze? x)

    GavinD

    October 11, 2011 at 10:26 pm


Leave a Reply

Fill in your details below or click an icon to log in:

WordPress.com Logo

You are commenting using your WordPress.com account. Log Out / Change )

Twitter picture

You are commenting using your Twitter account. Log Out / Change )

Facebook photo

You are commenting using your Facebook account. Log Out / Change )

Google+ photo

You are commenting using your Google+ account. Log Out / Change )

Connecting to %s

%d bloggers like this: