Know Music, Know Life

tsunvun86's Guitar Chords & Tabs

the GazettE – PLEDGE [Solo Tabs]

with 4 comments


the GazettE - PLEDGE [solo]

-------------------------------------------------------15--/18--16h18p16\15--
--------6----------------6-8/9\8-----------------15-18-----------------------
------7---8------------7----------/7--8-------15-----------------------------
-/5-8--------/6--8--/8--------------------/17--------------------------------
-----------------------------------------------------------------------------
-----------------------------------------------------------------------------

-15h16p15\13-13h15p13\11-11h13p11\10-----------------------------------------
-------------------------------------11-11-13-13-------------11-11-----------
-------------------------------------------------12-12-10-10-------10-10-----
-----------------------------------------------------------------------------
-----------------------------------------------------------------------------
-----------------------------------------------------------------------------

-----------------------------------------------------------------------------
----------------------------------------------------13-------11------8-------
-------12-12-------------10-10-----------------/12-----12\10----10\7---7-8-7-
-13-13-------12-12-13-13-------13-13-12-12-10--------------------------------
-----------------------------------------------------------------------------
-----------------------------------------------------------------------------

-----------------------------------------------------------------------------
-------------------------------3-4-3h4p3-----/20-----------------------------
-----------------------------------------5--------19--20-19--17-17/20--------
-8h10------------------------------------------------------------------------
------8h10-------------------------------------------------------------------
-----------10h11-8h10-6h8-1h3------------------------------------------------


--------------13-16-15---/18--18-16-15---------------------------------------
-----------15--------------------------16-----16b18b16---------------15-16---
-----12/15---------------------------------15----------15------15-17---------
-/13-------------------------------------------------------/17---------------
-----------------------------------------------------------------------------
-----------------------------------------------------------------------------

-------------------------------------------------------------/18--20---------
----------15-16---------16/18-----20b21b20-18--18-16-15-16------------/16-15-
-/17--17-------------15--------15--------------------------------------------
-----------------/18---------------------------------------------------------
-----------------------------------------------------------------------------
-----------------------------------------------------------------------------

----20b22-18--18--16--15-15---18-16-15---------------------------------------
---------------------------------------16---15-------------------------------
-15--------------------------------------------15-13-12b13b12-13-12----------
--------------------------------------------------------------------12-13----
-----------------------------------------------------------------------------
-----------------------------------------------------------------------------


Transcribed by,
tsunvun86
Advertisements

Written by tsunvun86

May 8, 2011 at 9:43 pm

4 Responses

Subscribe to comments with RSS.

  1. this is on standard tuning?

    Progresive

    November 15, 2011 at 7:26 pm

  2. hey can you do a solo of reila and nausea and shudder? very nice and perfect cover together with awesome tab!

    grey

    February 26, 2012 at 1:48 pm

  3. hey can you do a solo of reila and nausea and shudder?you have very nice and perfect cover together with awesome tab for the pledge video!sweet!

    grey

    February 28, 2012 at 12:31 pm


Leave a Reply

Fill in your details below or click an icon to log in:

WordPress.com Logo

You are commenting using your WordPress.com account. Log Out / Change )

Twitter picture

You are commenting using your Twitter account. Log Out / Change )

Facebook photo

You are commenting using your Facebook account. Log Out / Change )

Google+ photo

You are commenting using your Google+ account. Log Out / Change )

Connecting to %s

%d bloggers like this: