Know Music, Know Life

tsunvun86's Guitar Chords & Tabs

SCANDAL – Playboy PartII [Chords & Tabs]

leave a comment »


SCANDAL - Playboy PartII

C#/F - x8666x
Eb/G - x(10)888x

Intro:
Bbm Fm )
C# G#  } (x2)

Verse:
Bbm Fm Ebm C# F (x2)

Pre-Chorus:
Ebm Bbm
Ebm F

Chorus:
Bbm Fm 
Ebm G# C# F
F# C#/F 
Ebm Fm F# F
Ebm F

Instrumental:
Bbm Fm
C# G#

Verse 2:
Bbm Fm Ebm C# F

repeat Pre-Chorus

repeat Chorus

Bridge:
Bbm F7 G# Eb/G
F# C#/F Ebm F
Bbm F7 G# Eb/G
F# F

repeat Chorus

Bbm
G# Bbm (x2)

Outro:
Bbm Fm )
C# G#  } (x2)
Bbm



Intro/Instrumental/Outro Solo:
Guitar 1
-------------------------------------      -----------------------------------------
-------------------------------------      ----------9------------------------------
---6---------------------------------      ---6-8/10---10\8-6-----------------------
-8---6-8---------------------------6- (x2) -8---------------------------------------
---------6/8--6-4-6--6-4-6-4-6-4-6---      -----------------------------------------
-------------------------------------      -----------------------------------------
(instrumental starts here...)
-------------------------------------      -----------------------------------------
-------------------------------------      ----------9------------------------------
---6---------------------------------      ---6-8/10---10\8-6-----------------------
-8---6-8---------------------------6- (x2) -8-----------------8---------------------
---------6/8--6-4-6--6-4-6-4-6-4-6---      -----------------------------------------
-------------------------------------      -----------------------------------------

Guitar 2
16----------------------------------------------------      -------------16----------
----14------------------------------------------------      ----14-16/18----18\16-14-
-15----13-15---------------------------------------13-      -15----------------------
-------------13/15--13-11-13--13-11-13-11-13-11-13---- (x2) -------------------------
------------------------------------------------------      -------------------------
------------------------------------------------------      -------------------------
(instrumental starts here...)
16----------------------------------------------------      -------------16-------------
----14------------------------------------------------      ----14-16/18----18\16-14----
-15----13-15---------------------------------------13-      -15----------------------15-
-------------13/15--13-11-13--13-11-13-11-13-11-13---- (x2) ----------------------------
------------------------------------------------------      ----------------------------
------------------------------------------------------      ----------------------------

Lick at the end of Bridge:
Guitar 1
------------------------------------------------------------------------------
------------------------------------------------------------------------------
----------8---10--------------------------------------------------------------
-7---10-----8-----------------------------------------------------------------
---8----8---------------------------------------------------------------------
------------------------------------------------------------------------------

Guitar 2
-------------11----13---------------------------------------------------------
-10----13-------11------------------------------------------------------------
----10----10------------------------------------------------------------------
------------------------------------------------------------------------------
------------------------------------------------------------------------------
------------------------------------------------------------------------------




Chords & Tabs by,
tsunvun86 @ SCANDAL HEAVEN
Advertisements

Written by tsunvun86

February 7, 2011 at 10:14 pm

Leave a Reply

Fill in your details below or click an icon to log in:

WordPress.com Logo

You are commenting using your WordPress.com account. Log Out / Change )

Twitter picture

You are commenting using your Twitter account. Log Out / Change )

Facebook photo

You are commenting using your Facebook account. Log Out / Change )

Google+ photo

You are commenting using your Google+ account. Log Out / Change )

Connecting to %s

%d bloggers like this: